                                                                        S      1
,,,12HC16-RO-4-100,22HAutodesk Inventor 2016,7Hunknown,32,38,7,99,15,,  G      1
1.,2,2HMM,1,0.08,15H20170508.160822,0.01,10000.,6Hnonaka,,11,0,15H201611G      2
25.081949;                                                              G      3
     186       1                                                00000000D      1
     186             -87       1       0                               0D      2
     514       2                                                00010000D      3
     514                       1       1                               0D      4
     510       3                                                00010000D      5
     510             -87       1       1                               0D      6
     510       4                                                00010000D      7
     510             -87       1       1                               0D      8
     510       5                                                00010000D      9
     510             -87       1       1                               0D     10
     510       6                                                00010000D     11
     510             -87       1       1                               0D     12
     510       7                                                00010000D     13
     510             -87       1       1                               0D     14
     510       8                                                00010000D     15
     510             -87       1       1                               0D     16
     510       9                                                00010000D     17
     510             -87       1       1                               0D     18
     508      10                                                00010000D     19
     508                       1       1                               0D     20
     508      11                                                00010000D     21
     508                       2       1                               0D     22
     508      13                                                00010000D     23
     508                       1       1                               0D     24
     508      14                                                00010000D     25
     508                       2       1                               0D     26
     508      16                                                00010000D     27
     508                       1       1                               0D     28
     508      17                                                00010000D     29
     508                       1       1                               0D     30
     508      18                                                00010000D     31
     508                       1       1                               0D     32
     508      19                                                00010000D     33
     508                       1       1                               0D     34
     508      20                                                00010000D     35
     508                       1       1                               0D     36
     126      21                                                00010000D     37
     126       0               6       0                               0D     38
     126      27                                                00010000D     39
     126       0               4       0                               0D     40
     126      31                                                00010000D     41
     126       0               8       0                               0D     42
     126      39                                                00010000D     43
     126       0               6       0                               0D     44
     126      45                                                00010000D     45
     126       0               8       0                               0D     46
     126      53                                                00010000D     47
     126       0               2       0                               0D     48
     126      55                                                00010000D     49
     126       0               5       0                               0D     50
     126      60                                                00010000D     51
     126       0               4       0                               0D     52
     126      64                                                00010000D     53
     126       0               7       0                               0D     54
     126      71                                                00010000D     55
     126       0               5       0                               0D     56
     126      76                                                00010000D     57
     126       0               7       0                               0D     58
     126      83                                                00010000D     59
     126       0               2       0                               0D     60
     126      85                                                00010000D     61
     126       0              10       0                               0D     62
     126      95                                                00010000D     63
     126       0               9       0                               0D     64
     126     104                                                00010000D     65
     126       0               2       0                               0D     66
     128     106                                                00010000D     67
     128       0     -87      22       0                               0D     68
     128     128                                                00010000D     69
     128       0     -87      16       0                               0D     70
     128     144                                                00010000D     71
     128       0     -87      16       0                               0D     72
     128     160                                                00010000D     73
     128       0     -87      12       0                               0D     74
     128     172                                                00010000D     75
     128       0     -87       3       0                               0D     76
     128     175                                                00010000D     77
     128       0     -87      11       0                               0D     78
     128     186                                                00010000D     79
     128       0     -87       3       0                               0D     80
     502     189                                                00010000D     81
     502                       5       1                               0D     82
     504     194                                                00010001D     83
     504                       4       1                               0D     84
     406     198                                                00000000D     85
     406                       1      15                               0D     86
     314     199                                                00000200D     87
     314                       1       0                               0D     88
186,3,1,0,0,1,85;                                                      1P      1
514,7,5,1,7,1,9,1,11,1,13,1,15,1,17,1;                                 3P      2
510,67,1,1,19;                                                         5P      3
510,69,1,1,21;                                                         7P      4
510,71,1,1,23;                                                         9P      5
510,73,1,1,25;                                                        11P      6
510,75,2,1,27,29;                                                     13P      7
510,77,1,1,31;                                                        15P      8
510,79,2,1,33,35;                                                     17P      9
508,4,0,83,1,1,0,0,83,2,1,0,0,83,2,0,0,0,83,3,1,0;                    19P     10
508,6,0,83,4,0,0,0,83,5,0,0,0,83,6,1,0,0,83,1,0,0,0,83,3,0,0,0,       21P     11
83,6,0,0;                                                             21P     12
508,4,0,83,7,1,0,0,83,8,1,0,0,83,8,0,0,0,83,9,1,0;                    23P     13
508,6,0,83,10,0,0,0,83,11,0,0,0,83,12,1,0,0,83,7,0,0,0,83,9,0,0,      25P     14
0,83,12,0,0;                                                          25P     15
508,1,0,83,13,1,0;                                                    27P     16
508,2,0,83,10,1,0,0,83,11,1,0;                                        29P     17
508,4,0,83,14,0,0,0,83,15,1,0,0,83,13,0,0,0,83,15,0,0;                31P     18
508,1,0,83,14,1,0;                                                    33P     19
508,2,0,83,4,1,0,0,83,5,1,0;                                          35P     20
126,4,2,0,0,0,0,0.,0.,0.,1.5707963267949,1.5707963267949,             37P     21
3.14159265358979,3.14159265358979,3.14159265358979,1.,                37P     22
0.707106781186548,1.,0.707106781186547,1.,-1.24999999999999,42.,      37P     23
0.,-1.24999999999999,42.,1.25,5.06697613147217D-15,42.,1.25,          37P     24
1.25,42.,1.25,1.25000000000001,42.,1.53080849893419D-16,0.,           37P     25
3.14159265358979,0.,0.,0.;                                            37P     26
126,1,1,0,0,1,0,-1.16663339721533,-1.16663339721533,                  39P     27
1.16663339721533,1.16663339721533,1.,1.,1.25,42.,0.,                  39P     28
5.10706899356811D-15,41.2489242262156,0.,-1.16663339721533,           39P     29
1.16663339721533,0.,0.,0.;                                            39P     30
126,4,2,0,0,0,0,3.14159265358979,3.14159265358979,                    41P     31
3.14159265358979,4.71238898038469,4.71238898038469,                   41P     32
6.28318530717959,6.28318530717959,6.28318530717959,1.,                41P     33
0.707106781186547,1.,0.707106781186547,1.,1.25000000000001,42.,       41P     34
1.53080849893419D-16,1.25000000000001,42.,-1.25,                      41P     35
5.37313783125901D-15,42.,-1.25,-1.24999999999999,42.,-1.25,           41P     36
-1.24999999999999,42.,-3.06161699786838D-16,3.14159265358979,         41P     37
6.28318530717959,0.,0.,0.;                                            41P     38
126,4,2,0,0,0,0,0.,0.,0.,1.5707963267949,1.5707963267949,             43P     39
3.14159265358979,3.14159265358979,3.14159265358979,1.,                43P     40
0.707106781186548,1.,0.707106781186548,1.,-1.24999999999999,50.,      43P     41
0.,-1.24999999999999,50.,-1.25,6.04669357079006D-15,50.,-1.25,        43P     42
1.25000000000001,50.,-1.25,1.25000000000001,50.,                      43P     43
-1.53080849893419D-16,0.,3.14159265358979,0.,0.,0.;                   43P     44
126,4,2,0,0,0,0,3.14159265358979,3.14159265358979,                    45P     45
3.14159265358979,4.71238898038469,4.71238898038469,                   45P     46
6.28318530717959,6.28318530717959,6.28318530717959,1.,                45P     47
0.707106781186548,1.,0.707106781186547,1.,1.25000000000001,50.,       45P     48
-1.53080849893419D-16,1.25000000000001,50.,1.25,                      45P     49
6.35285527057689D-15,50.,1.25,-1.24999999999999,50.,1.25,             45P     50
-1.24999999999999,50.,3.06161699786838D-16,3.14159265358979,          45P     51
6.28318530717959,0.,0.,0.;                                            45P     52
126,1,1,0,0,1,0,-3.2,-3.2,3.2,3.2,1.,1.,1.25000000000001,50.,0.,      47P     53
1.25000000000001,42.,0.,-3.2,3.2,0.,0.,0.;                            47P     54
126,4,2,0,0,0,0,0.,0.,0.,1.5707963267949,1.5707963267949,             49P     55
3.14159265358979,3.14159265358979,3.14159265358979,1.,                49P     56
0.707106781186547,1.,0.707106781186548,1.,1.25,-42.,0.,1.25,          49P     57
-42.,1.25,7.65404249467096D-17,-42.,1.25,-1.25,-42.,1.25,-1.25,       49P     58
-42.,1.53080849893419D-16,0.,3.14159265358979,0.,0.,0.;               49P     59
126,1,1,0,0,1,0,-1.16663339721533,-1.16663339721533,                  51P     60
1.16663339721533,1.16663339721533,1.,1.,-1.25,-42.,0.,0.,             51P     61
-41.2489242262156,0.,-1.16663339721533,1.16663339721533,0.,0.,        51P     62
0.;                                                                   51P     63
126,4,2,0,0,0,0,3.14159265358979,3.14159265358979,                    53P     64
3.14159265358979,4.71238898038469,4.71238898038469,                   53P     65
6.28318530717959,6.28318530717959,6.28318530717959,1.,                53P     66
0.707106781186548,1.,0.707106781186547,1.,-1.25,-42.,                 53P     67
1.53080849893419D-16,-1.25,-42.,-1.25,-2.29621274840129D-16,          53P     68
-42.,-1.25,1.25,-42.,-1.25,1.25,-42.,-3.06161699786838D-16,           53P     69
3.14159265358979,6.28318530717959,0.,0.,0.;                           53P     70
126,4,2,0,0,0,0,0.,0.,0.,1.5707963267949,1.5707963267949,             55P     71
3.14159265358979,3.14159265358979,3.14159265358979,1.,                55P     72
0.707106781186547,1.,0.707106781186548,1.,1.25,-50.,0.,1.25,          55P     73
-50.,-1.25,7.65404249467096D-17,-50.,-1.25,-1.25,-50.,-1.25,          55P     74
-1.25,-50.,-1.53080849893419D-16,0.,3.14159265358979,0.,0.,0.;        55P     75
126,4,2,0,0,0,0,3.14159265358979,3.14159265358979,                    57P     76
3.14159265358979,4.71238898038469,4.71238898038469,                   57P     77
6.28318530717959,6.28318530717959,6.28318530717959,1.,                57P     78
0.707106781186548,1.,0.707106781186547,1.,-1.25,-50.,                 57P     79
-1.53080849893419D-16,-1.25,-50.,1.25,-2.29621274840129D-16,          57P     80
-50.,1.25,1.25,-50.,1.25,1.25,-50.,3.06161699786838D-16,              57P     81
3.14159265358979,6.28318530717959,0.,0.,0.;                           57P     82
126,1,1,0,0,1,0,-3.2,-3.2,3.2,3.2,1.,1.,-1.25,-50.,0.,-1.25,          59P     83
-42.,0.,-3.2,3.2,0.,0.,0.;                                            59P     84
126,8,2,0,1,0,0,-3.14159265358979,-3.14159265358979,                  61P     85
-3.14159265358979,-1.5707963267949,-1.5707963267949,0.,0.,            61P     86
1.5707963267949,1.5707963267949,3.14159265358979,                     61P     87
3.14159265358979,3.14159265358979,1.,0.707106781186548,1.,            61P     88
0.707106781186548,1.,0.707106781186548,1.,0.707106781186548,1.,       61P     89
-2.,-50.,-2.44929359829471D-16,-2.,-50.,-2.,                          61P     90
1.22464679914735D-16,-50.,-2.,2.,-50.,-2.,2.,-50.,0.,2.,-50.,2.,      61P     91
1.22464679914735D-16,-50.,2.,-2.,-50.,2.,-2.,-50.,                    61P     92
2.44929359829471D-16,-3.14159265358979,3.14159265358979,0.,0.,        61P     93
0.;                                                                   61P     94
126,8,2,0,1,0,0,-3.14159265358979,-3.14159265358979,                  63P     95
-3.14159265358979,-1.5707963267949,-1.5707963267949,0.,0.,            63P     96
1.5707963267949,1.5707963267949,3.14159265358979,                     63P     97
3.14159265358979,3.14159265358979,1.,0.707106781186548,1.,            63P     98
0.707106781186548,1.,0.707106781186548,1.,0.707106781186548,1.,       63P     99
-2.,50.,2.44929359829471D-16,-2.,50.,2.,1.22464679914735D-16,         63P    100
50.,2.,2.,50.,2.,2.,50.,0.,2.,50.,-2.,1.22464679914735D-16,50.,       63P    101
-2.,-2.,50.,-2.,-2.,50.,-2.44929359829471D-16,-3.14159265358979,      63P    102
3.14159265358979,0.,0.,0.;                                            63P    103
126,1,1,0,0,1,0,-25.,-25.,25.,25.,1.,1.,-2.,50.,0.,-2.,-50.,0.,       65P    104
-25.,25.,0.,0.,0.;                                                    65P    105
128,1,8,1,2,0,1,0,0,1,-1.16663339721533,-1.16663339721533,            67P    106
1.16663339721533,1.16663339721533,-3.14159265358979,                  67P    107
-3.14159265358979,-3.14159265358979,-1.5707963267949,                 67P    108
-1.5707963267949,0.,0.,1.5707963267949,1.5707963267949,               67P    109
3.14159265358979,3.14159265358979,3.14159265358979,1.,1.,             67P    110
0.707106781186548,0.707106781186548,1.,1.,0.707106781186548,          67P    111
0.707106781186548,1.,1.,0.707106781186548,0.707106781186548,1.,       67P    112
1.,0.707106781186548,0.707106781186548,1.,1.,                         67P    113
5.10706899356811D-15,41.2489242262156,0.,1.25,42.,0.,                 67P    114
5.10706899356811D-15,41.2489242262156,-5.55326913774541D-17,          67P    115
1.25,42.,-1.25,5.05153630219066D-15,41.2489242262156,                 67P    116
-5.55326913774541D-17,5.14351655641888D-15,42.,-1.25,                 67P    117
4.9960036108132D-15,41.2489242262156,-5.55326913774541D-17,           67P    118
-1.24999999999999,42.,-1.25,4.9960036108132D-15,                      67P    119
41.2489242262156,0.,-1.24999999999999,42.,0.,                         67P    120
4.9960036108132D-15,41.2489242262156,5.55326913774541D-17,            67P    121
-1.24999999999999,42.,1.25,5.05153630219066D-15,                      67P    122
41.2489242262156,5.55326913774541D-17,5.14351655641888D-15,42.,       67P    123
1.25,5.10706899356811D-15,41.2489242262156,5.55326913774541D-17,      67P    124
1.25,42.,1.25,5.10706899356811D-15,41.2489242262156,0.,1.25,42.,      67P    125
0.,-1.16663339721533,1.16663339721533,-3.14159265358979,              67P    126
3.14159265358979;                                                     67P    127
128,1,8,1,2,0,1,0,0,1,-3.2,-3.2,3.2,3.2,-3.14159265358979,            69P    128
-3.14159265358979,-3.14159265358979,-1.5707963267949,                 69P    129
-1.5707963267949,0.,0.,1.5707963267949,1.5707963267949,               69P    130
3.14159265358979,3.14159265358979,3.14159265358979,1.,1.,             69P    131
0.707106781186548,0.707106781186548,1.,1.,0.707106781186548,          69P    132
0.707106781186548,1.,1.,0.707106781186548,0.707106781186548,1.,       69P    133
1.,0.707106781186548,0.707106781186548,1.,1.,1.25000000000001,        69P    134
42.,0.,1.25000000000001,50.,0.,1.25,42.,-1.25,1.25000000000001,       69P    135
50.,-1.25,5.14351655641888D-15,42.,-1.25,6.12323399573677D-15,        69P    136
50.,-1.25,-1.24999999999999,42.,-1.25,-1.24999999999999,50.,          69P    137
-1.25,-1.24999999999999,42.,0.,-1.24999999999999,50.,0.,              69P    138
-1.24999999999999,42.,1.25,-1.24999999999999,50.,1.25,                69P    139
5.14351655641888D-15,42.,1.25,6.12323399573677D-15,50.,1.25,          69P    140
1.25,42.,1.25,1.25000000000001,50.,1.25,1.25000000000001,42.,0.,      69P    141
1.25000000000001,50.,0.,-3.2,3.2,-3.14159265358979,                   69P    142
3.14159265358979;                                                     69P    143
128,1,8,1,2,0,1,0,0,1,-1.16663339721533,-1.16663339721533,            71P    144
1.16663339721533,1.16663339721533,-3.14159265358979,                  71P    145
-3.14159265358979,-3.14159265358979,-1.5707963267949,                 71P    146
-1.5707963267949,0.,0.,1.5707963267949,1.5707963267949,               71P    147
3.14159265358979,3.14159265358979,3.14159265358979,1.,1.,             71P    148
0.707106781186548,0.707106781186548,1.,1.,0.707106781186548,          71P    149
0.707106781186548,1.,1.,0.707106781186548,0.707106781186548,1.,       71P    150
1.,0.707106781186548,0.707106781186548,1.,1.,0.,                      71P    151
-41.2489242262156,0.,-1.25,-42.,0.,0.,-41.2489242262156,0.,           71P    152
-1.25,-42.,-1.25,0.,-41.2489242262156,0.,0.,-42.,-1.25,0.,            71P    153
-41.2489242262156,0.,1.25,-42.,-1.25,0.,-41.2489242262156,0.,         71P    154
1.25,-42.,0.,0.,-41.2489242262156,0.,1.25,-42.,1.25,0.,               71P    155
-41.2489242262156,0.,0.,-42.,1.25,0.,-41.2489242262156,0.,-1.25,      71P    156
-42.,1.25,0.,-41.2489242262156,0.,-1.25,-42.,0.,                      71P    157
-1.16663339721533,1.16663339721533,-3.14159265358979,                 71P    158
3.14159265358979;                                                     71P    159
128,1,8,1,2,0,1,0,0,1,-3.2,-3.2,3.2,3.2,-3.14159265358979,            73P    160
-3.14159265358979,-3.14159265358979,-1.5707963267949,                 73P    161
-1.5707963267949,0.,0.,1.5707963267949,1.5707963267949,               73P    162
3.14159265358979,3.14159265358979,3.14159265358979,1.,1.,             73P    163
0.707106781186548,0.707106781186548,1.,1.,0.707106781186548,          73P    164
0.707106781186548,1.,1.,0.707106781186548,0.707106781186548,1.,       73P    165
1.,0.707106781186548,0.707106781186548,1.,1.,-1.25,-42.,0.,           73P    166
-1.25,-50.,0.,-1.25,-42.,-1.25,-1.25,-50.,-1.25,0.,-42.,-1.25,        73P    167
0.,-50.,-1.25,1.25,-42.,-1.25,1.25,-50.,-1.25,1.25,-42.,0.,1.25,      73P    168
-50.,0.,1.25,-42.,1.25,1.25,-50.,1.25,0.,-42.,1.25,0.,-50.,1.25,      73P    169
-1.25,-42.,1.25,-1.25,-50.,1.25,-1.25,-42.,0.,-1.25,-50.,0.,          73P    170
-3.2,3.2,-3.14159265358979,3.14159265358979;                          73P    171
128,1,1,1,1,0,0,1,0,0,-0.2,-0.2,0.2,0.2,-0.2,-0.2,0.2,0.2,1.,1.,      75P    172
1.,1.,-2.,-50.,2.,-2.,-50.,-2.,2.,-50.,2.,2.,-50.,-2.,-0.2,0.2,       75P    173
-0.2,0.2;                                                             75P    174
128,1,8,1,2,0,1,0,0,1,-25.,-25.,25.,25.,-3.14159265358979,            77P    175
-3.14159265358979,-3.14159265358979,-1.5707963267949,                 77P    176
-1.5707963267949,0.,0.,1.5707963267949,1.5707963267949,               77P    177
3.14159265358979,3.14159265358979,3.14159265358979,1.,1.,             77P    178
0.707106781186548,0.707106781186548,1.,1.,0.707106781186548,          77P    179
0.707106781186548,1.,1.,0.707106781186548,0.707106781186548,1.,       77P    180
1.,0.707106781186548,0.707106781186548,1.,1.,-2.,50.,0.,-2.,          77P    181
-50.,0.,-2.,50.,2.,-2.,-50.,2.,0.,50.,2.,0.,-50.,2.,2.,50.,2.,        77P    182
2.,-50.,2.,2.,50.,0.,2.,-50.,0.,2.,50.,-2.,2.,-50.,-2.,0.,50.,        77P    183
-2.,0.,-50.,-2.,-2.,50.,-2.,-2.,-50.,-2.,-2.,50.,0.,-2.,-50.,0.,      77P    184
-25.,25.,-3.14159265358979,3.14159265358979;                          77P    185
128,1,1,1,1,0,0,1,0,0,-0.2,-0.2,0.2,0.2,-0.2,-0.2,0.2,0.2,1.,1.,      79P    186
1.,1.,-2.,50.,-2.,-2.,50.,2.,2.,50.,-2.,2.,50.,2.,-0.2,0.2,-0.2,      79P    187
0.2;                                                                  79P    188
502,12,-1.24999999999999,42.,0.,1.25,42.,0.,                          81P    189
5.05153630219066D-15,41.2489242262156,0.,-1.24999999999999,50.,       81P    190
0.,1.25000000000001,50.,0.,1.25,-42.,0.,-1.25,-42.,0.,0.,             81P    191
-41.2489242262156,0.,1.25,-50.,0.,-1.25,-50.,0.,-2.,-50.,             81P    192
2.44929359829471D-16,-2.,50.,2.44929359829471D-16;                    81P    193
504,15,37,81,1,81,2,39,81,2,81,3,41,81,2,81,1,43,81,4,81,5,45,        83P    194
81,5,81,4,47,81,5,81,2,49,81,6,81,7,51,81,7,81,8,53,81,7,81,6,        83P    195
55,81,9,81,10,57,81,10,81,9,59,81,10,81,7,61,81,11,81,11,63,81,       83P    196
12,81,12,65,81,12,81,11;                                              83P    197
406,1,13Hソリッド1;                                               85P    198
314,74.9019607843137,74.9019607843137,74.9019607843137,;              87P    199
S      1G      3D     88P    199                                        T      1
