ISO-10303-21;
HEADER;
/* Generated by software containing ST-Developer
 * from STEP Tools, Inc. (www.steptools.com) 
 */

FILE_DESCRIPTION(
/* description */ (''),
/* implementation_level */ '2;1');

FILE_NAME(
/* name */ 
'Y:\\2_OpticalHard\\08_Cage Systems\\C16\X2\FF7CFF98FF70FF7DFF9E\X0\\\
C16-RO-4\\C16-RO-4-100.stp',
/* time_stamp */ '2017-05-08T16:07:42+09:00',
/* author */ ('e.nonaka'),
/* organization */ (''),
/* preprocessor_version */ 'ST-DEVELOPER v16.1',
/* originating_system */ 'Autodesk Inventor 2016',
/* authorisation */ '');

FILE_SCHEMA (('AUTOMOTIVE_DESIGN { 1 0 10303 214 3 1 1 }'));
ENDSEC;

DATA;
#10=MECHANICAL_DESIGN_GEOMETRIC_PRESENTATION_REPRESENTATION('',(#13),#149);
#11=SHAPE_REPRESENTATION_RELATIONSHIP('SRR','None',#158,#12);
#12=ADVANCED_BREP_SHAPE_REPRESENTATION('',(#14),#148);
#13=STYLED_ITEM('',(#167),#14);
#14=MANIFOLD_SOLID_BREP('\X2\30BD30EA30C330C9\X0\1',#83);
#15=PLANE('',#93);
#16=PLANE('',#97);
#17=FACE_BOUND('',#34,.T.);
#18=FACE_BOUND('',#37,.T.);
#19=FACE_BOUND('',#39,.T.);
#20=FACE_BOUND('',#41,.T.);
#21=FACE_BOUND('',#43,.T.);
#22=CYLINDRICAL_SURFACE('',#87,1.25);
#23=CYLINDRICAL_SURFACE('',#91,1.25);
#24=CYLINDRICAL_SURFACE('',#95,2.);
#25=FACE_OUTER_BOUND('',#32,.T.);
#26=FACE_OUTER_BOUND('',#33,.T.);
#27=FACE_OUTER_BOUND('',#35,.T.);
#28=FACE_OUTER_BOUND('',#36,.T.);
#29=FACE_OUTER_BOUND('',#38,.T.);
#30=FACE_OUTER_BOUND('',#40,.T.);
#31=FACE_OUTER_BOUND('',#42,.T.);
#32=EDGE_LOOP('',(#62));
#33=EDGE_LOOP('',(#63));
#34=EDGE_LOOP('',(#64));
#35=EDGE_LOOP('',(#65));
#36=EDGE_LOOP('',(#66));
#37=EDGE_LOOP('',(#67));
#38=EDGE_LOOP('',(#68));
#39=EDGE_LOOP('',(#69));
#40=EDGE_LOOP('',(#70));
#41=EDGE_LOOP('',(#71));
#42=EDGE_LOOP('',(#72));
#43=EDGE_LOOP('',(#73));
#44=CIRCLE('',#86,1.25);
#45=CIRCLE('',#88,1.25);
#46=CIRCLE('',#90,1.25);
#47=CIRCLE('',#92,1.25);
#48=CIRCLE('',#94,2.);
#49=CIRCLE('',#96,2.);
#50=VERTEX_POINT('',#128);
#51=VERTEX_POINT('',#131);
#52=VERTEX_POINT('',#134);
#53=VERTEX_POINT('',#137);
#54=VERTEX_POINT('',#140);
#55=VERTEX_POINT('',#143);
#56=EDGE_CURVE('',#50,#50,#44,.T.);
#57=EDGE_CURVE('',#51,#51,#45,.T.);
#58=EDGE_CURVE('',#52,#52,#46,.T.);
#59=EDGE_CURVE('',#53,#53,#47,.T.);
#60=EDGE_CURVE('',#54,#54,#48,.T.);
#61=EDGE_CURVE('',#55,#55,#49,.T.);
#62=ORIENTED_EDGE('',*,*,#56,.T.);
#63=ORIENTED_EDGE('',*,*,#57,.F.);
#64=ORIENTED_EDGE('',*,*,#56,.F.);
#65=ORIENTED_EDGE('',*,*,#58,.T.);
#66=ORIENTED_EDGE('',*,*,#59,.F.);
#67=ORIENTED_EDGE('',*,*,#58,.F.);
#68=ORIENTED_EDGE('',*,*,#60,.T.);
#69=ORIENTED_EDGE('',*,*,#59,.T.);
#70=ORIENTED_EDGE('',*,*,#60,.F.);
#71=ORIENTED_EDGE('',*,*,#61,.F.);
#72=ORIENTED_EDGE('',*,*,#61,.T.);
#73=ORIENTED_EDGE('',*,*,#57,.T.);
#74=CONICAL_SURFACE('',#85,0.625,59.);
#75=CONICAL_SURFACE('',#89,0.625,59.);
#76=ADVANCED_FACE('',(#25),#74,.F.);
#77=ADVANCED_FACE('',(#26,#17),#22,.F.);
#78=ADVANCED_FACE('',(#27),#75,.F.);
#79=ADVANCED_FACE('',(#28,#18),#23,.F.);
#80=ADVANCED_FACE('',(#29,#19),#15,.F.);
#81=ADVANCED_FACE('',(#30,#20),#24,.T.);
#82=ADVANCED_FACE('',(#31,#21),#16,.T.);
#83=CLOSED_SHELL('',(#76,#77,#78,#79,#80,#81,#82));
#84=AXIS2_PLACEMENT_3D('placement',#126,#98,#99);
#85=AXIS2_PLACEMENT_3D('',#127,#100,#101);
#86=AXIS2_PLACEMENT_3D('',#129,#102,#103);
#87=AXIS2_PLACEMENT_3D('',#130,#104,#105);
#88=AXIS2_PLACEMENT_3D('',#132,#106,#107);
#89=AXIS2_PLACEMENT_3D('',#133,#108,#109);
#90=AXIS2_PLACEMENT_3D('',#135,#110,#111);
#91=AXIS2_PLACEMENT_3D('',#136,#112,#113);
#92=AXIS2_PLACEMENT_3D('',#138,#114,#115);
#93=AXIS2_PLACEMENT_3D('',#139,#116,#117);
#94=AXIS2_PLACEMENT_3D('',#141,#118,#119);
#95=AXIS2_PLACEMENT_3D('',#142,#120,#121);
#96=AXIS2_PLACEMENT_3D('',#144,#122,#123);
#97=AXIS2_PLACEMENT_3D('',#145,#124,#125);
#98=DIRECTION('axis',(0.,0.,1.));
#99=DIRECTION('refdir',(1.,0.,0.));
#100=DIRECTION('center_axis',(1.22464679914735E-16,1.,0.));
#101=DIRECTION('ref_axis',(-1.,1.22464679914735E-16,0.));
#102=DIRECTION('center_axis',(1.22464679914735E-16,1.,0.));
#103=DIRECTION('ref_axis',(-1.,1.22464679914735E-16,0.));
#104=DIRECTION('center_axis',(1.22464679914735E-16,1.,0.));
#105=DIRECTION('ref_axis',(-1.,1.22464679914735E-16,0.));
#106=DIRECTION('center_axis',(0.,-1.,0.));
#107=DIRECTION('ref_axis',(-1.,1.22464679914735E-16,0.));
#108=DIRECTION('center_axis',(0.,-1.,0.));
#109=DIRECTION('ref_axis',(1.,0.,0.));
#110=DIRECTION('center_axis',(0.,-1.,0.));
#111=DIRECTION('ref_axis',(1.,0.,0.));
#112=DIRECTION('center_axis',(0.,-1.,0.));
#113=DIRECTION('ref_axis',(1.,0.,0.));
#114=DIRECTION('center_axis',(0.,1.,0.));
#115=DIRECTION('ref_axis',(1.,0.,0.));
#116=DIRECTION('center_axis',(0.,1.,0.));
#117=DIRECTION('ref_axis',(0.,0.,1.));
#118=DIRECTION('center_axis',(0.,-1.,0.));
#119=DIRECTION('ref_axis',(1.,0.,0.));
#120=DIRECTION('center_axis',(0.,1.,0.));
#121=DIRECTION('ref_axis',(1.,0.,0.));
#122=DIRECTION('center_axis',(0.,1.,0.));
#123=DIRECTION('ref_axis',(1.,0.,0.));
#124=DIRECTION('center_axis',(0.,1.,0.));
#125=DIRECTION('ref_axis',(0.,0.,1.));
#126=CARTESIAN_POINT('',(0.,0.,0.));
#127=CARTESIAN_POINT('Origin',(5.09752642930477E-15,41.6244621131078,0.));
#128=CARTESIAN_POINT('',(-1.24999999999999,42.,0.));
#129=CARTESIAN_POINT('Origin',(5.14351655641888E-15,42.,0.));
#130=CARTESIAN_POINT('Origin',(5.63337527607782E-15,46.,0.));
#131=CARTESIAN_POINT('',(-1.24999999999999,50.,0.));
#132=CARTESIAN_POINT('Origin',(6.12323399573677E-15,50.,0.));
#133=CARTESIAN_POINT('Origin',(0.,-41.6244621131078,0.));
#134=CARTESIAN_POINT('',(1.25,-42.,0.));
#135=CARTESIAN_POINT('Origin',(0.,-42.,0.));
#136=CARTESIAN_POINT('Origin',(0.,-46.,0.));
#137=CARTESIAN_POINT('',(1.25,-50.,0.));
#138=CARTESIAN_POINT('Origin',(0.,-50.,0.));
#139=CARTESIAN_POINT('Origin',(1.36059011717576E-16,-50.,0.));
#140=CARTESIAN_POINT('',(-2.,-50.,2.44929359829471E-16));
#141=CARTESIAN_POINT('Origin',(0.,-50.,0.));
#142=CARTESIAN_POINT('Origin',(0.,0.,0.));
#143=CARTESIAN_POINT('',(-2.,50.,2.44929359829471E-16));
#144=CARTESIAN_POINT('Origin',(0.,50.,0.));
#145=CARTESIAN_POINT('Origin',(1.36059011717576E-16,50.,0.));
#146=UNCERTAINTY_MEASURE_WITH_UNIT(LENGTH_MEASURE(0.01),#150,
'DISTANCE_ACCURACY_VALUE',
'Maximum model space distance between geometric entities at asserted c
onnectivities');
#147=UNCERTAINTY_MEASURE_WITH_UNIT(LENGTH_MEASURE(1.E-6),#150,
'DISTANCE_ACCURACY_VALUE',
'Maximum model space distance between geometric entities at asserted c
onnectivities');
#148=(
GEOMETRIC_REPRESENTATION_CONTEXT(3)
GLOBAL_UNCERTAINTY_ASSIGNED_CONTEXT((#146))
GLOBAL_UNIT_ASSIGNED_CONTEXT((#150,#153,#151))
REPRESENTATION_CONTEXT('','3D')
);
#149=(
GEOMETRIC_REPRESENTATION_CONTEXT(3)
GLOBAL_UNCERTAINTY_ASSIGNED_CONTEXT((#147))
GLOBAL_UNIT_ASSIGNED_CONTEXT((#150,#153,#151))
REPRESENTATION_CONTEXT('','3D')
);
#150=(
LENGTH_UNIT()
NAMED_UNIT(*)
SI_UNIT(.MILLI.,.METRE.)
);
#151=(
NAMED_UNIT(*)
SI_UNIT($,.STERADIAN.)
SOLID_ANGLE_UNIT()
);
#152=DIMENSIONAL_EXPONENTS(0.,0.,0.,0.,0.,0.,0.);
#153=(
CONVERSION_BASED_UNIT('degree',#155)
NAMED_UNIT(#152)
PLANE_ANGLE_UNIT()
);
#154=(
NAMED_UNIT(*)
PLANE_ANGLE_UNIT()
SI_UNIT($,.RADIAN.)
);
#155=PLANE_ANGLE_MEASURE_WITH_UNIT(PLANE_ANGLE_MEASURE(0.01745329252),#154);
#156=SHAPE_DEFINITION_REPRESENTATION(#157,#158);
#157=PRODUCT_DEFINITION_SHAPE('',$,#160);
#158=SHAPE_REPRESENTATION('',(#84),#148);
#159=PRODUCT_DEFINITION_CONTEXT('part definition',#164,'design');
#160=PRODUCT_DEFINITION('C16RO4100-M03-17001','C16RO4100-M03-17001',#161,
#159);
#161=PRODUCT_DEFINITION_FORMATION('',$,#166);
#162=PRODUCT_RELATED_PRODUCT_CATEGORY('C16RO4100-M03-17001',
'C16RO4100-M03-17001',(#166));
#163=APPLICATION_PROTOCOL_DEFINITION('international standard',
'automotive_design',2009,#164);
#164=APPLICATION_CONTEXT(
'Core Data for Automotive Mechanical Design Process');
#165=PRODUCT_CONTEXT('part definition',#164,'mechanical');
#166=PRODUCT('C16RO4100-M03-17001','C16RO4100-M03-17001',$,(#165));
#167=PRESENTATION_STYLE_ASSIGNMENT((#168));
#168=SURFACE_STYLE_USAGE(.BOTH.,#169);
#169=SURFACE_SIDE_STYLE('',(#170));
#170=SURFACE_STYLE_FILL_AREA(#171);
#171=FILL_AREA_STYLE('',(#172));
#172=FILL_AREA_STYLE_COLOUR('',#173);
#173=COLOUR_RGB('',0.749019607843137,0.749019607843137,0.749019607843137);
ENDSEC;
END-ISO-10303-21;
