                                                                        S      1
,,,11HC16-RO-4-20,22HAutodesk Inventor 2016,7Hunknown,32,38,7,99,15,,1.,G      1
2,2HMM,1,0.08,15H20170508.155235,0.01,10000.,6Hnonaka,,11,0,15H20161125.G      2
081949;                                                                 G      3
     186       1                                                00000000D      1
     186             -87       1       0                               0D      2
     514       2                                                00010000D      3
     514                       1       1                               0D      4
     510       3                                                00010000D      5
     510             -87       1       1                               0D      6
     510       4                                                00010000D      7
     510             -87       1       1                               0D      8
     510       5                                                00010000D      9
     510             -87       1       1                               0D     10
     510       6                                                00010000D     11
     510             -87       1       1                               0D     12
     510       7                                                00010000D     13
     510             -87       1       1                               0D     14
     510       8                                                00010000D     15
     510             -87       1       1                               0D     16
     510       9                                                00010000D     17
     510             -87       1       1                               0D     18
     508      10                                                00010000D     19
     508                       1       1                               0D     20
     508      11                                                00010000D     21
     508                       2       1                               0D     22
     508      13                                                00010000D     23
     508                       1       1                               0D     24
     508      14                                                00010000D     25
     508                       2       1                               0D     26
     508      16                                                00010000D     27
     508                       1       1                               0D     28
     508      17                                                00010000D     29
     508                       1       1                               0D     30
     508      18                                                00010000D     31
     508                       1       1                               0D     32
     508      19                                                00010000D     33
     508                       1       1                               0D     34
     508      20                                                00010000D     35
     508                       1       1                               0D     36
     126      21                                                00010000D     37
     126       0               5       0                               0D     38
     126      26                                                00010000D     39
     126       0               4       0                               0D     40
     126      30                                                00010000D     41
     126       0               7       0                               0D     42
     126      37                                                00010000D     43
     126       0               5       0                               0D     44
     126      42                                                00010000D     45
     126       0               7       0                               0D     46
     126      49                                                00010000D     47
     126       0               2       0                               0D     48
     126      51                                                00010000D     49
     126       0               5       0                               0D     50
     126      56                                                00010000D     51
     126       0               4       0                               0D     52
     126      60                                                00010000D     53
     126       0               7       0                               0D     54
     126      67                                                00010000D     55
     126       0               5       0                               0D     56
     126      72                                                00010000D     57
     126       0               7       0                               0D     58
     126      79                                                00010000D     59
     126       0               2       0                               0D     60
     126      81                                                00010000D     61
     126       0              10       0                               0D     62
     126      91                                                00010000D     63
     126       0               9       0                               0D     64
     126     100                                                00010000D     65
     126       0               2       0                               0D     66
     128     102                                                00010000D     67
     128       0     -87      21       0                               0D     68
     128     123                                                00010000D     69
     128       0     -87      13       0                               0D     70
     128     136                                                00010000D     71
     128       0     -87      15       0                               0D     72
     128     151                                                00010000D     73
     128       0     -87      12       0                               0D     74
     128     163                                                00010000D     75
     128       0     -87       3       0                               0D     76
     128     166                                                00010000D     77
     128       0     -87      11       0                               0D     78
     128     177                                                00010000D     79
     128       0     -87       3       0                               0D     80
     502     180                                                00010000D     81
     502                       4       1                               0D     82
     504     184                                                00010001D     83
     504                       4       1                               0D     84
     406     188                                                00000000D     85
     406                       1      15                               0D     86
     314     189                                                00000200D     87
     314                       1       0                               0D     88
186,3,1,0,0,1,85;                                                      1P      1
514,7,5,1,7,1,9,1,11,1,13,1,15,1,17,1;                                 3P      2
510,67,1,1,19;                                                         5P      3
510,69,1,1,21;                                                         7P      4
510,71,1,1,23;                                                         9P      5
510,73,1,1,25;                                                        11P      6
510,75,2,1,27,29;                                                     13P      7
510,77,1,1,31;                                                        15P      8
510,79,2,1,33,35;                                                     17P      9
508,4,0,83,1,1,0,0,83,2,1,0,0,83,2,0,0,0,83,3,1,0;                    19P     10
508,6,0,83,4,0,0,0,83,5,0,0,0,83,6,1,0,0,83,1,0,0,0,83,3,0,0,0,       21P     11
83,6,0,0;                                                             21P     12
508,4,0,83,7,1,0,0,83,8,1,0,0,83,8,0,0,0,83,9,1,0;                    23P     13
508,6,0,83,10,0,0,0,83,11,0,0,0,83,12,1,0,0,83,7,0,0,0,83,9,0,0,      25P     14
0,83,12,0,0;                                                          25P     15
508,1,0,83,13,1,0;                                                    27P     16
508,2,0,83,10,1,0,0,83,11,1,0;                                        29P     17
508,4,0,83,14,0,0,0,83,15,1,0,0,83,13,0,0,0,83,15,0,0;                31P     18
508,1,0,83,14,1,0;                                                    33P     19
508,2,0,83,4,1,0,0,83,5,1,0;                                          35P     20
126,4,2,0,0,0,0,0.,0.,0.,1.5707963267949,1.5707963267949,             37P     21
3.14159265358979,3.14159265358979,3.14159265358979,1.,                37P     22
0.707106781186547,1.,0.707106781186548,1.,-1.25,2.,0.,-1.25,2.,       37P     23
1.25,1.68388934882761D-16,2.,1.25,1.25,2.,1.25,1.25,2.,               37P     24
1.53080849893419D-16,0.,3.14159265358979,0.,0.,0.;                    37P     25
126,1,1,0,0,1,0,-1.16663339721533,-1.16663339721533,                  39P     26
1.16663339721533,1.16663339721533,1.,1.,1.25,2.,0.,                   39P     27
1.67120333124347D-16,1.24892422621555,0.,-1.16663339721533,           39P     28
1.16663339721533,0.,0.,0.;                                            39P     29
126,4,2,0,0,0,0,3.14159265358979,3.14159265358979,                    41P     30
3.14159265358979,4.71238898038469,4.71238898038469,                   41P     31
6.28318530717959,6.28318530717959,6.28318530717959,1.,                41P     32
0.707106781186548,1.,0.707106781186547,1.,1.25,2.,                    41P     33
1.53080849893419D-16,1.25,2.,-1.25,4.74550634669599D-16,2.,           41P     34
-1.25,-1.25,2.,-1.25,-1.25,2.,-3.06161699786838D-16,                  41P     35
3.14159265358979,6.28318530717959,0.,0.,0.;                           41P     36
126,4,2,0,0,0,0,0.,0.,0.,1.5707963267949,1.5707963267949,             43P     37
3.14159265358979,3.14159265358979,3.14159265358979,1.,                43P     38
0.707106781186547,1.,0.707106781186548,1.,-1.25,10.,0.,-1.25,         43P     39
10.,-1.25,1.14810637420064D-15,10.,-1.25,1.25,10.,-1.25,1.25,         43P     40
10.,-1.53080849893419D-16,0.,3.14159265358979,0.,0.,0.;               43P     41
126,4,2,0,0,0,0,3.14159265358979,3.14159265358979,                    45P     42
3.14159265358979,4.71238898038469,4.71238898038469,                   45P     43
6.28318530717959,6.28318530717959,6.28318530717959,1.,                45P     44
0.707106781186548,1.,0.707106781186547,1.,1.25,10.,                   45P     45
-1.53080849893419D-16,1.25,10.,1.25,1.45426807398748D-15,10.,         45P     46
1.25,-1.25,10.,1.25,-1.25,10.,3.06161699786838D-16,                   45P     47
3.14159265358979,6.28318530717959,0.,0.,0.;                           45P     48
126,1,1,0,0,1,0,-3.2,-3.2,3.2,3.2,1.,1.,1.25,10.,0.,1.25,2.,0.,       47P     49
-3.2,3.2,0.,0.,0.;                                                    47P     50
126,4,2,0,0,0,0,0.,0.,0.,1.5707963267949,1.5707963267949,             49P     51
3.14159265358979,3.14159265358979,3.14159265358979,1.,                49P     52
0.707106781186547,1.,0.707106781186548,1.,1.25,-2.,0.,1.25,-2.,       49P     53
1.25,7.65404249467096D-17,-2.,1.25,-1.25,-2.,1.25,-1.25,-2.,          49P     54
1.53080849893419D-16,0.,3.14159265358979,0.,0.,0.;                    49P     55
126,1,1,0,0,1,0,-1.16663339721533,-1.16663339721533,                  51P     56
1.16663339721533,1.16663339721533,1.,1.,-1.25,-2.,0.,0.,              51P     57
-1.24892422621555,0.,-1.16663339721533,1.16663339721533,0.,0.,        51P     58
0.;                                                                   51P     59
126,4,2,0,0,0,0,3.14159265358979,3.14159265358979,                    53P     60
3.14159265358979,4.71238898038469,4.71238898038469,                   53P     61
6.28318530717959,6.28318530717959,6.28318530717959,1.,                53P     62
0.707106781186548,1.,0.707106781186547,1.,-1.25,-2.,                  53P     63
1.53080849893419D-16,-1.25,-2.,-1.25,-2.29621274840129D-16,-2.,       53P     64
-1.25,1.25,-2.,-1.25,1.25,-2.,-3.06161699786838D-16,                  53P     65
3.14159265358979,6.28318530717959,0.,0.,0.;                           53P     66
126,4,2,0,0,0,0,0.,0.,0.,1.5707963267949,1.5707963267949,             55P     67
3.14159265358979,3.14159265358979,3.14159265358979,1.,                55P     68
0.707106781186547,1.,0.707106781186548,1.,1.25,-10.,0.,1.25,          55P     69
-10.,-1.25,7.65404249467096D-17,-10.,-1.25,-1.25,-10.,-1.25,          55P     70
-1.25,-10.,-1.53080849893419D-16,0.,3.14159265358979,0.,0.,0.;        55P     71
126,4,2,0,0,0,0,3.14159265358979,3.14159265358979,                    57P     72
3.14159265358979,4.71238898038469,4.71238898038469,                   57P     73
6.28318530717959,6.28318530717959,6.28318530717959,1.,                57P     74
0.707106781186548,1.,0.707106781186547,1.,-1.25,-10.,                 57P     75
-1.53080849893419D-16,-1.25,-10.,1.25,-2.29621274840129D-16,          57P     76
-10.,1.25,1.25,-10.,1.25,1.25,-10.,3.06161699786838D-16,              57P     77
3.14159265358979,6.28318530717959,0.,0.,0.;                           57P     78
126,1,1,0,0,1,0,-3.2,-3.2,3.2,3.2,1.,1.,-1.25,-10.,0.,-1.25,-2.,      59P     79
0.,-3.2,3.2,0.,0.,0.;                                                 59P     80
126,8,2,0,1,0,0,-3.14159265358979,-3.14159265358979,                  61P     81
-3.14159265358979,-1.5707963267949,-1.5707963267949,0.,0.,            61P     82
1.5707963267949,1.5707963267949,3.14159265358979,                     61P     83
3.14159265358979,3.14159265358979,1.,0.707106781186548,1.,            61P     84
0.707106781186548,1.,0.707106781186548,1.,0.707106781186548,1.,       61P     85
-2.,-10.,-2.44929359829471D-16,-2.,-10.,-2.,                          61P     86
1.22464679914735D-16,-10.,-2.,2.,-10.,-2.,2.,-10.,0.,2.,-10.,2.,      61P     87
1.22464679914735D-16,-10.,2.,-2.,-10.,2.,-2.,-10.,                    61P     88
2.44929359829471D-16,-3.14159265358979,3.14159265358979,0.,0.,        61P     89
0.;                                                                   61P     90
126,8,2,0,1,0,0,-3.14159265358979,-3.14159265358979,                  63P     91
-3.14159265358979,-1.5707963267949,-1.5707963267949,0.,0.,            63P     92
1.5707963267949,1.5707963267949,3.14159265358979,                     63P     93
3.14159265358979,3.14159265358979,1.,0.707106781186548,1.,            63P     94
0.707106781186548,1.,0.707106781186548,1.,0.707106781186548,1.,       63P     95
-2.,10.,2.44929359829471D-16,-2.,10.,2.,1.22464679914735D-16,         63P     96
10.,2.,2.,10.,2.,2.,10.,0.,2.,10.,-2.,1.22464679914735D-16,10.,       63P     97
-2.,-2.,10.,-2.,-2.,10.,-2.44929359829471D-16,-3.14159265358979,      63P     98
3.14159265358979,0.,0.,0.;                                            63P     99
126,1,1,0,0,1,0,-5.,-5.,5.,5.,1.,1.,-2.,10.,0.,-2.,-10.,0.,-5.,       65P    100
5.,0.,0.,0.;                                                          65P    101
128,1,8,1,2,0,1,0,0,1,-1.16663339721533,-1.16663339721533,            67P    102
1.16663339721533,1.16663339721533,-3.14159265358979,                  67P    103
-3.14159265358979,-3.14159265358979,-1.5707963267949,                 67P    104
-1.5707963267949,0.,0.,1.5707963267949,1.5707963267949,               67P    105
3.14159265358979,3.14159265358979,3.14159265358979,1.,1.,             67P    106
0.707106781186548,0.707106781186548,1.,1.,0.707106781186548,          67P    107
0.707106781186548,1.,1.,0.707106781186548,0.707106781186548,1.,       67P    108
1.,0.707106781186548,0.707106781186548,1.,1.,                         67P    109
1.67120333124347D-16,1.24892422621555,0.,1.25,2.,0.,                  67P    110
1.67120333124347D-16,1.24892422621555,-1.41712275231011D-17,          67P    111
1.25,2.,-1.25,1.52949105601246D-16,1.24892422621555,                  67P    112
-1.41712275231011D-17,2.44929359829471D-16,2.,-1.25,                  67P    113
1.38777878078145D-16,1.24892422621555,-1.41712275231011D-17,          67P    114
-1.25,2.,-1.25,1.38777878078145D-16,1.24892422621555,0.,-1.25,        67P    115
2.,0.,1.38777878078145D-16,1.24892422621555,                          67P    116
1.41712275231011D-17,-1.25,2.,1.25,1.52949105601246D-16,              67P    117
1.24892422621555,1.41712275231011D-17,2.44929359829471D-16,2.,        67P    118
1.25,1.67120333124347D-16,1.24892422621555,1.41712275231011D-17,      67P    119
1.25,2.,1.25,1.67120333124347D-16,1.24892422621555,0.,1.25,2.,        67P    120
0.,-1.16663339721533,1.16663339721533,-3.14159265358979,              67P    121
3.14159265358979;                                                     67P    122
128,1,8,1,2,0,1,0,0,1,-3.2,-3.2,3.2,3.2,-3.14159265358979,            69P    123
-3.14159265358979,-3.14159265358979,-1.5707963267949,                 69P    124
-1.5707963267949,0.,0.,1.5707963267949,1.5707963267949,               69P    125
3.14159265358979,3.14159265358979,3.14159265358979,1.,1.,             69P    126
0.707106781186548,0.707106781186548,1.,1.,0.707106781186548,          69P    127
0.707106781186548,1.,1.,0.707106781186548,0.707106781186548,1.,       69P    128
1.,0.707106781186548,0.707106781186548,1.,1.,1.25,2.,0.,1.25,         69P    129
10.,0.,1.25,2.,-1.25,1.25,10.,-1.25,2.44929359829471D-16,2.,          69P    130
-1.25,1.22464679914735D-15,10.,-1.25,-1.25,2.,-1.25,-1.25,10.,        69P    131
-1.25,-1.25,2.,0.,-1.25,10.,0.,-1.25,2.,1.25,-1.25,10.,1.25,          69P    132
2.44929359829471D-16,2.,1.25,1.22464679914735D-15,10.,1.25,1.25,      69P    133
2.,1.25,1.25,10.,1.25,1.25,2.,0.,1.25,10.,0.,-3.2,3.2,                69P    134
-3.14159265358979,3.14159265358979;                                   69P    135
128,1,8,1,2,0,1,0,0,1,-1.16663339721533,-1.16663339721533,            71P    136
1.16663339721533,1.16663339721533,-3.14159265358979,                  71P    137
-3.14159265358979,-3.14159265358979,-1.5707963267949,                 71P    138
-1.5707963267949,0.,0.,1.5707963267949,1.5707963267949,               71P    139
3.14159265358979,3.14159265358979,3.14159265358979,1.,1.,             71P    140
0.707106781186548,0.707106781186548,1.,1.,0.707106781186548,          71P    141
0.707106781186548,1.,1.,0.707106781186548,0.707106781186548,1.,       71P    142
1.,0.707106781186548,0.707106781186548,1.,1.,0.,                      71P    143
-1.24892422621555,0.,-1.25,-2.,0.,0.,-1.24892422621555,0.,-1.25,      71P    144
-2.,-1.25,0.,-1.24892422621555,0.,0.,-2.,-1.25,0.,                    71P    145
-1.24892422621555,0.,1.25,-2.,-1.25,0.,-1.24892422621555,0.,          71P    146
1.25,-2.,0.,0.,-1.24892422621555,0.,1.25,-2.,1.25,0.,                 71P    147
-1.24892422621555,0.,0.,-2.,1.25,0.,-1.24892422621555,0.,-1.25,       71P    148
-2.,1.25,0.,-1.24892422621555,0.,-1.25,-2.,0.,-1.16663339721533,      71P    149
1.16663339721533,-3.14159265358979,3.14159265358979;                  71P    150
128,1,8,1,2,0,1,0,0,1,-3.2,-3.2,3.2,3.2,-3.14159265358979,            73P    151
-3.14159265358979,-3.14159265358979,-1.5707963267949,                 73P    152
-1.5707963267949,0.,0.,1.5707963267949,1.5707963267949,               73P    153
3.14159265358979,3.14159265358979,3.14159265358979,1.,1.,             73P    154
0.707106781186548,0.707106781186548,1.,1.,0.707106781186548,          73P    155
0.707106781186548,1.,1.,0.707106781186548,0.707106781186548,1.,       73P    156
1.,0.707106781186548,0.707106781186548,1.,1.,-1.25,-2.,0.,-1.25,      73P    157
-10.,0.,-1.25,-2.,-1.25,-1.25,-10.,-1.25,0.,-2.,-1.25,0.,-10.,        73P    158
-1.25,1.25,-2.,-1.25,1.25,-10.,-1.25,1.25,-2.,0.,1.25,-10.,0.,        73P    159
1.25,-2.,1.25,1.25,-10.,1.25,0.,-2.,1.25,0.,-10.,1.25,-1.25,-2.,      73P    160
1.25,-1.25,-10.,1.25,-1.25,-2.,0.,-1.25,-10.,0.,-3.2,3.2,             73P    161
-3.14159265358979,3.14159265358979;                                   73P    162
128,1,1,1,1,0,0,1,0,0,-0.2,-0.2,0.2,0.2,-0.2,-0.2,0.2,0.2,1.,1.,      75P    163
1.,1.,-2.,-10.,2.,-2.,-10.,-2.,2.,-10.,2.,2.,-10.,-2.,-0.2,0.2,       75P    164
-0.2,0.2;                                                             75P    165
128,1,8,1,2,0,1,0,0,1,-5.,-5.,5.,5.,-3.14159265358979,                77P    166
-3.14159265358979,-3.14159265358979,-1.5707963267949,                 77P    167
-1.5707963267949,0.,0.,1.5707963267949,1.5707963267949,               77P    168
3.14159265358979,3.14159265358979,3.14159265358979,1.,1.,             77P    169
0.707106781186548,0.707106781186548,1.,1.,0.707106781186548,          77P    170
0.707106781186548,1.,1.,0.707106781186548,0.707106781186548,1.,       77P    171
1.,0.707106781186548,0.707106781186548,1.,1.,-2.,10.,0.,-2.,          77P    172
-10.,0.,-2.,10.,2.,-2.,-10.,2.,0.,10.,2.,0.,-10.,2.,2.,10.,2.,        77P    173
2.,-10.,2.,2.,10.,0.,2.,-10.,0.,2.,10.,-2.,2.,-10.,-2.,0.,10.,        77P    174
-2.,0.,-10.,-2.,-2.,10.,-2.,-2.,-10.,-2.,-2.,10.,0.,-2.,-10.,0.,      77P    175
-5.,5.,-3.14159265358979,3.14159265358979;                            77P    176
128,1,1,1,1,0,0,1,0,0,-0.2,-0.2,0.2,0.2,-0.2,-0.2,0.2,0.2,1.,1.,      79P    177
1.,1.,-2.,10.,-2.,-2.,10.,2.,2.,10.,-2.,2.,10.,2.,-0.2,0.2,-0.2,      79P    178
0.2;                                                                  79P    179
502,12,-1.25,2.,0.,1.25,2.,0.,1.52949105601246D-16,                   81P    180
1.24892422621555,0.,-1.25,10.,0.,1.25,10.,0.,1.25,-2.,0.,-1.25,       81P    181
-2.,0.,0.,-1.24892422621555,0.,1.25,-10.,0.,-1.25,-10.,0.,-2.,        81P    182
-10.,2.44929359829471D-16,-2.,10.,2.44929359829471D-16;               81P    183
504,15,37,81,1,81,2,39,81,2,81,3,41,81,2,81,1,43,81,4,81,5,45,        83P    184
81,5,81,4,47,81,5,81,2,49,81,6,81,7,51,81,7,81,8,53,81,7,81,6,        83P    185
55,81,9,81,10,57,81,10,81,9,59,81,10,81,7,61,81,11,81,11,63,81,       83P    186
12,81,12,65,81,12,81,11;                                              83P    187
406,1,13Hソリッド1;                                               85P    188
314,74.9019607843137,74.9019607843137,74.9019607843137,;              87P    189
S      1G      3D     88P    189                                        T      1
