                                                                        S      1
,,,11HC16-RO-4-10,22HAutodesk Inventor 2020,7Hunknown,32,38,7,99,15,,1.,G      1
2,2HMM,1,0.08,15H20200330.135924,0.01,10000.,6Hnonaka,,11,0,15H20161125.G      2
081949;                                                                 G      3
     186       1                                                00000000D      1
     186             -99       1       0                               0D      2
     514       2                                                00010000D      3
     514                       1       1                               0D      4
     510       3                                                00010000D      5
     510             -99       1       1                               0D      6
     510       4                                                00010000D      7
     510             -99       1       1                               0D      8
     510       5                                                00010000D      9
     510             -99       1       1                               0D     10
     510       6                                                00010000D     11
     510             -99       1       1                               0D     12
     510       7                                                00010000D     13
     510             -99       1       1                               0D     14
     510       8                                                00010000D     15
     510             -99       1       1                               0D     16
     510       9                                                00010000D     17
     510             -99       1       1                               0D     18
     510      10                                                00010000D     19
     510             -99       1       1                               0D     20
     508      11                                                00010000D     21
     508                       1       1                               0D     22
     508      12                                                00010000D     23
     508                       2       1                               0D     24
     508      14                                                00010000D     25
     508                       1       1                               0D     26
     508      15                                                00010000D     27
     508                       2       1                               0D     28
     508      17                                                00010000D     29
     508                       1       1                               0D     30
     508      18                                                00010000D     31
     508                       1       1                               0D     32
     508      19                                                00010000D     33
     508                       1       1                               0D     34
     508      20                                                00010000D     35
     508                       1       1                               0D     36
     508      21                                                00010000D     37
     508                       1       1                               0D     38
     508      22                                                00010000D     39
     508                       1       1                               0D     40
     126      23                                                00010000D     41
     126       0               5       0                               0D     42
     126      28                                                00010000D     43
     126       0               3       0                               0D     44
     126      31                                                00010000D     45
     126       0              12       0                               0D     46
     126      43                                                00010000D     47
     126       0               7       0                               0D     48
     126      50                                                00010000D     49
     126       0               5       0                               0D     50
     126      55                                                00010000D     51
     126       0               7       0                               0D     52
     126      62                                                00010000D     53
     126       0               2       0                               0D     54
     126      64                                                00010000D     55
     126       0               5       0                               0D     56
     126      69                                                00010000D     57
     126       0               4       0                               0D     58
     126      73                                                00010000D     59
     126       0              12       0                               0D     60
     126      85                                                00010000D     61
     126       0               7       0                               0D     62
     126      92                                                00010000D     63
     126       0               5       0                               0D     64
     126      97                                                00010000D     65
     126       0               7       0                               0D     66
     126     104                                                00010000D     67
     126       0               2       0                               0D     68
     126     106                                                00010000D     69
     126       0               4       0                               0D     70
     126     110                                                00010000D     71
     126       0               9       0                               0D     72
     126     119                                                00010000D     73
     126       0               9       0                               0D     74
     126     128                                                00010000D     75
     126       0               2       0                               0D     76
     128     130                                                00010000D     77
     128       0     -99      16       0                               0D     78
     128     146                                                00010000D     79
     128       0     -99      12       0                               0D     80
     128     158                                                00010000D     81
     128       0     -99      16       0                               0D     82
     128     174                                                00010000D     83
     128       0     -99      12       0                               0D     84
     128     186                                                00010000D     85
     128       0     -99      18       0                               0D     86
     128     204                                                00010000D     87
     128       0     -99       3       0                               0D     88
     128     207                                                00010000D     89
     128       0     -99      11       0                               0D     90
     128     218                                                00010000D     91
     128       0     -99       3       0                               0D     92
     502     221                                                00010000D     93
     502                       5       1                               0D     94
     504     226                                                00010001D     95
     504                       4       1                               0D     96
     406     230                                                00000000D     97
     406                       1      15                               0D     98
     314     231                                                00000200D     99
     314                       1       0                               0D    100
186,3,1,0,0,1,97;                                                      1P      1
514,8,5,1,7,1,9,1,11,1,13,1,15,1,17,1,19,1;                            3P      2
510,77,1,1,21;                                                         5P      3
510,79,1,1,23;                                                         7P      4
510,81,1,1,25;                                                         9P      5
510,83,1,1,27;                                                        11P      6
510,85,1,1,29;                                                        13P      7
510,87,2,1,31,33;                                                     15P      8
510,89,1,1,35;                                                        17P      9
510,91,2,1,37,39;                                                     19P     10
508,5,0,95,1,1,0,0,95,2,1,0,0,95,3,0,0,0,95,2,0,0,0,95,4,1,0;         21P     11
508,6,0,95,5,0,0,0,95,6,0,0,0,95,7,1,0,0,95,1,0,0,0,95,4,0,0,0,       23P     12
95,7,0,0;                                                             23P     13
508,5,0,95,8,1,0,0,95,9,1,0,0,95,10,0,0,0,95,9,0,0,0,95,11,1,0;       25P     14
508,6,0,95,12,0,0,0,95,13,0,0,0,95,14,1,0,0,95,8,0,0,0,95,11,0,       27P     15
0,0,95,14,0,0;                                                        27P     16
508,4,0,95,10,1,0,0,95,15,1,0,0,95,3,1,0,0,95,15,0,0;                 29P     17
508,1,0,95,16,1,0;                                                    31P     18
508,2,0,95,12,1,0,0,95,13,1,0;                                        33P     19
508,4,0,95,17,0,0,0,95,18,1,0,0,95,16,0,0,0,95,18,0,0;                35P     20
508,1,0,95,17,1,0;                                                    37P     21
508,2,0,95,5,1,0,0,95,6,1,0;                                          39P     22
126,4,2,0,0,0,0,0.,0.,0.,1.5707963267949,1.5707963267949,             41P     23
3.14159265358979,3.14159265358979,3.14159265358979,1.,                41P     24
0.707106781186548,1.,0.707106781186548,1.,1.25,1.5,0.,1.25,1.5,       41P     25
-1.25,7.65404249467096D-17,1.5,-1.25,-1.25,1.5,-1.25,-1.25,1.5,       41P     26
-1.53080849893419D-16,0.,3.14159265358979,0.,0.,0.;                   41P     27
126,1,1,0,0,1,0,-1.16663339721533,-1.16663339721533,                  43P     28
-1.0733027254381,-1.0733027254381,1.,1.,-1.25,1.5,0.,-1.2,            43P     29
1.46995696904862,0.,-1.16663339721533,-1.0733027254381,0.,0.,0.;      43P     30
126,8,2,0,1,0,0,-3.14159265358979,-3.14159265358979,                  45P     31
-3.14159265358979,-1.5707963267949,-1.5707963267949,0.,0.,            45P     32
1.5707963267949,1.5707963267949,3.14159265358979,                     45P     33
3.14159265358979,3.14159265358979,1.,0.707106781186548,1.,            45P     34
0.707106781186548,1.,0.707106781186548,1.,0.707106781186548,1.,       45P     35
-1.2,1.46995696904862,1.46957615897682D-16,-1.2,                      45P     36
1.46995696904862,1.2,7.34788079488412D-17,1.46995696904862,1.2,       45P     37
1.2,1.46995696904862,1.2,1.2,1.46995696904862,0.,1.2,                 45P     38
1.46995696904862,-1.2,7.34788079488412D-17,1.46995696904862,          45P     39
-1.2,-1.2,1.46995696904862,-1.2,-1.2,1.46995696904862,                45P     40
-1.46957615897682D-16,-3.14159265358979,3.14159265358979,0.,0.,       45P     41
0.;                                                                   45P     42
126,4,2,0,0,0,0,3.14159265358979,3.14159265358979,                    47P     43
3.14159265358979,4.71238898038469,4.71238898038469,                   47P     44
6.28318530717959,6.28318530717959,6.28318530717959,1.,                47P     45
0.707106781186548,1.,0.707106781186547,1.,-1.25,1.5,                  47P     46
-1.53080849893419D-16,-1.25,1.5,1.25,-2.29621274840129D-16,1.5,       47P     47
1.25,1.25,1.5,1.25,1.25,1.5,3.06161699786838D-16,                     47P     48
3.14159265358979,6.28318530717959,0.,0.,0.;                           47P     49
126,4,2,0,0,0,0,0.,0.,0.,1.5707963267949,1.5707963267949,             49P     50
3.14159265358979,3.14159265358979,3.14159265358979,1.,                49P     51
0.707106781186548,1.,0.707106781186548,1.,1.25,5.,0.,1.25,5.,         49P     52
1.25,7.65404249467096D-17,5.,1.25,-1.25,5.,1.25,-1.25,5.,             49P     53
1.53080849893419D-16,0.,3.14159265358979,0.,0.,0.;                    49P     54
126,4,2,0,0,0,0,3.14159265358979,3.14159265358979,                    51P     55
3.14159265358979,4.71238898038469,4.71238898038469,                   51P     56
6.28318530717959,6.28318530717959,6.28318530717959,1.,                51P     57
0.707106781186548,1.,0.707106781186547,1.,-1.25,5.,                   51P     58
1.53080849893419D-16,-1.25,5.,-1.25,-2.29621274840129D-16,5.,         51P     59
-1.25,1.25,5.,-1.25,1.25,5.,-3.06161699786838D-16,                    51P     60
3.14159265358979,6.28318530717959,0.,0.,0.;                           51P     61
126,1,1,0,0,1,0,-1.4,-1.4,1.4,1.4,1.,1.,-1.25,5.,0.,-1.25,1.5,        53P     62
0.,-1.4,1.4,0.,0.,0.;                                                 53P     63
126,4,2,0,0,0,0,0.,0.,0.,1.5707963267949,1.5707963267949,             55P     64
3.14159265358979,3.14159265358979,3.14159265358979,1.,                55P     65
0.707106781186548,1.,0.707106781186548,1.,1.25,-1.5,0.,1.25,          55P     66
-1.5,1.25,7.65404249467096D-17,-1.5,1.25,-1.25,-1.5,1.25,-1.25,       55P     67
-1.5,1.53080849893419D-16,0.,3.14159265358979,0.,0.,0.;               55P     68
126,1,1,0,0,1,0,-1.16663339721533,-1.16663339721533,                  57P     69
-1.0733027254381,-1.0733027254381,1.,1.,-1.25,-1.5,0.,-1.2,           57P     70
-1.46995696904862,0.,-1.16663339721533,-1.0733027254381,0.,0.,        57P     71
0.;                                                                   57P     72
126,8,2,0,1,0,0,-3.14159265358979,-3.14159265358979,                  59P     73
-3.14159265358979,-1.5707963267949,-1.5707963267949,0.,0.,            59P     74
1.5707963267949,1.5707963267949,3.14159265358979,                     59P     75
3.14159265358979,3.14159265358979,1.,0.707106781186548,1.,            59P     76
0.707106781186548,1.,0.707106781186548,1.,0.707106781186548,1.,       59P     77
-1.2,-1.46995696904862,-1.46957615897682D-16,-1.2,                    59P     78
-1.46995696904862,-1.2,7.34788079488412D-17,-1.46995696904862,        59P     79
-1.2,1.2,-1.46995696904862,-1.2,1.2,-1.46995696904862,0.,1.2,         59P     80
-1.46995696904862,1.2,7.34788079488412D-17,-1.46995696904862,         59P     81
1.2,-1.2,-1.46995696904862,1.2,-1.2,-1.46995696904862,                59P     82
1.46957615897682D-16,-3.14159265358979,3.14159265358979,0.,0.,        59P     83
0.;                                                                   59P     84
126,4,2,0,0,0,0,3.14159265358979,3.14159265358979,                    61P     85
3.14159265358979,4.71238898038469,4.71238898038469,                   61P     86
6.28318530717959,6.28318530717959,6.28318530717959,1.,                61P     87
0.707106781186548,1.,0.707106781186547,1.,-1.25,-1.5,                 61P     88
1.53080849893419D-16,-1.25,-1.5,-1.25,-2.29621274840129D-16,          61P     89
-1.5,-1.25,1.25,-1.5,-1.25,1.25,-1.5,-3.06161699786838D-16,           61P     90
3.14159265358979,6.28318530717959,0.,0.,0.;                           61P     91
126,4,2,0,0,0,0,0.,0.,0.,1.5707963267949,1.5707963267949,             63P     92
3.14159265358979,3.14159265358979,3.14159265358979,1.,                63P     93
0.707106781186548,1.,0.707106781186548,1.,1.25,-5.,0.,1.25,-5.,       63P     94
-1.25,7.65404249467096D-17,-5.,-1.25,-1.25,-5.,-1.25,-1.25,-5.,       63P     95
-1.53080849893419D-16,0.,3.14159265358979,0.,0.,0.;                   63P     96
126,4,2,0,0,0,0,3.14159265358979,3.14159265358979,                    65P     97
3.14159265358979,4.71238898038469,4.71238898038469,                   65P     98
6.28318530717959,6.28318530717959,6.28318530717959,1.,                65P     99
0.707106781186548,1.,0.707106781186547,1.,-1.25,-5.,                  65P    100
-1.53080849893419D-16,-1.25,-5.,1.25,-2.29621274840129D-16,-5.,       65P    101
1.25,1.25,-5.,1.25,1.25,-5.,3.06161699786838D-16,                     65P    102
3.14159265358979,6.28318530717959,0.,0.,0.;                           65P    103
126,1,1,0,0,1,0,-1.4,-1.4,1.4,1.4,1.,1.,-1.25,-5.,0.,-1.25,-1.5,      67P    104
0.,-1.4,1.4,0.,0.,0.;                                                 67P    105
126,1,1,0,0,1,0,-6.63256855177057,-6.63256855177057,                  69P    106
-4.18264027002286,-4.18264027002286,1.,1.,-1.2,                       69P    107
-1.46995696904862,0.,-1.2,1.46995696904862,0.,-6.63256855177057,      69P    108
-4.18264027002286,0.,0.,0.;                                           69P    109
126,8,2,0,1,0,0,-3.14159265358979,-3.14159265358979,                  71P    110
-3.14159265358979,-1.5707963267949,-1.5707963267949,0.,0.,            71P    111
1.5707963267949,1.5707963267949,3.14159265358979,                     71P    112
3.14159265358979,3.14159265358979,1.,0.707106781186548,1.,            71P    113
0.707106781186548,1.,0.707106781186548,1.,0.707106781186548,1.,       71P    114
-2.,-5.,-2.44929359829471D-16,-2.,-5.,-2.,1.22464679914735D-16,       71P    115
-5.,-2.,2.,-5.,-2.,2.,-5.,0.,2.,-5.,2.,1.22464679914735D-16,-5.,      71P    116
2.,-2.,-5.,2.,-2.,-5.,2.44929359829471D-16,-3.14159265358979,         71P    117
3.14159265358979,0.,0.,0.;                                            71P    118
126,8,2,0,1,0,0,-3.14159265358979,-3.14159265358979,                  73P    119
-3.14159265358979,-1.5707963267949,-1.5707963267949,0.,0.,            73P    120
1.5707963267949,1.5707963267949,3.14159265358979,                     73P    121
3.14159265358979,3.14159265358979,1.,0.707106781186548,1.,            73P    122
0.707106781186548,1.,0.707106781186548,1.,0.707106781186548,1.,       73P    123
-2.,5.,2.44929359829471D-16,-2.,5.,2.,1.22464679914735D-16,5.,        73P    124
2.,2.,5.,2.,2.,5.,0.,2.,5.,-2.,1.22464679914735D-16,5.,-2.,-2.,       73P    125
5.,-2.,-2.,5.,-2.44929359829471D-16,-3.14159265358979,                73P    126
3.14159265358979,0.,0.,0.;                                            73P    127
126,1,1,0,0,1,0,-2.5,-2.5,2.5,2.5,1.,1.,-2.,5.,0.,-2.,-5.,0.,         75P    128
-2.5,2.5,0.,0.,0.;                                                    75P    129
128,1,8,1,2,0,1,0,0,1,-1.16663339721533,-1.16663339721533,            77P    130
-1.0733027254381,-1.0733027254381,-3.14159265358979,                  77P    131
-3.14159265358979,-3.14159265358979,-1.5707963267949,                 77P    132
-1.5707963267949,0.,0.,1.5707963267949,1.5707963267949,               77P    133
3.14159265358979,3.14159265358979,3.14159265358979,1.,1.,             77P    134
0.707106781186548,0.707106781186548,1.,1.,0.707106781186548,          77P    135
0.707106781186548,1.,1.,0.707106781186548,0.707106781186548,1.,       77P    136
1.,0.707106781186548,0.707106781186548,1.,1.,-1.2,                    77P    137
1.46995696904862,0.,-1.25,1.5,0.,-1.2,1.46995696904862,1.2,           77P    138
-1.25,1.5,1.25,0.,1.46995696904862,1.2,0.,1.5,1.25,1.2,               77P    139
1.46995696904862,1.2,1.25,1.5,1.25,1.2,1.46995696904862,0.,1.25,      77P    140
1.5,0.,1.2,1.46995696904862,-1.2,1.25,1.5,-1.25,0.,                   77P    141
1.46995696904862,-1.2,0.,1.5,-1.25,-1.2,1.46995696904862,-1.2,        77P    142
-1.25,1.5,-1.25,-1.2,1.46995696904862,0.,-1.25,1.5,0.,                77P    143
-1.16663339721533,-1.0733027254381,-3.14159265358979,                 77P    144
3.14159265358979;                                                     77P    145
128,1,8,1,2,0,1,0,0,1,-1.4,-1.4,1.4,1.4,-3.14159265358979,            79P    146
-3.14159265358979,-3.14159265358979,-1.5707963267949,                 79P    147
-1.5707963267949,0.,0.,1.5707963267949,1.5707963267949,               79P    148
3.14159265358979,3.14159265358979,3.14159265358979,1.,1.,             79P    149
0.707106781186548,0.707106781186548,1.,1.,0.707106781186548,          79P    150
0.707106781186548,1.,1.,0.707106781186548,0.707106781186548,1.,       79P    151
1.,0.707106781186548,0.707106781186548,1.,1.,-1.25,1.5,0.,-1.25,      79P    152
5.,0.,-1.25,1.5,1.25,-1.25,5.,1.25,0.,1.5,1.25,0.,5.,1.25,1.25,       79P    153
1.5,1.25,1.25,5.,1.25,1.25,1.5,0.,1.25,5.,0.,1.25,1.5,-1.25,          79P    154
1.25,5.,-1.25,0.,1.5,-1.25,0.,5.,-1.25,-1.25,1.5,-1.25,-1.25,5.,      79P    155
-1.25,-1.25,1.5,0.,-1.25,5.,0.,-1.4,1.4,-3.14159265358979,            79P    156
3.14159265358979;                                                     79P    157
128,1,8,1,2,0,1,0,0,1,-1.16663339721533,-1.16663339721533,            81P    158
-1.0733027254381,-1.0733027254381,-3.14159265358979,                  81P    159
-3.14159265358979,-3.14159265358979,-1.5707963267949,                 81P    160
-1.5707963267949,0.,0.,1.5707963267949,1.5707963267949,               81P    161
3.14159265358979,3.14159265358979,3.14159265358979,1.,1.,             81P    162
0.707106781186548,0.707106781186548,1.,1.,0.707106781186548,          81P    163
0.707106781186548,1.,1.,0.707106781186548,0.707106781186548,1.,       81P    164
1.,0.707106781186548,0.707106781186548,1.,1.,-1.2,                    81P    165
-1.46995696904862,0.,-1.25,-1.5,0.,-1.2,-1.46995696904862,-1.2,       81P    166
-1.25,-1.5,-1.25,0.,-1.46995696904862,-1.2,0.,-1.5,-1.25,1.2,         81P    167
-1.46995696904862,-1.2,1.25,-1.5,-1.25,1.2,-1.46995696904862,0.,      81P    168
1.25,-1.5,0.,1.2,-1.46995696904862,1.2,1.25,-1.5,1.25,0.,             81P    169
-1.46995696904862,1.2,0.,-1.5,1.25,-1.2,-1.46995696904862,1.2,        81P    170
-1.25,-1.5,1.25,-1.2,-1.46995696904862,0.,-1.25,-1.5,0.,              81P    171
-1.16663339721533,-1.0733027254381,-3.14159265358979,                 81P    172
3.14159265358979;                                                     81P    173
128,1,8,1,2,0,1,0,0,1,-1.4,-1.4,1.4,1.4,-3.14159265358979,            83P    174
-3.14159265358979,-3.14159265358979,-1.5707963267949,                 83P    175
-1.5707963267949,0.,0.,1.5707963267949,1.5707963267949,               83P    176
3.14159265358979,3.14159265358979,3.14159265358979,1.,1.,             83P    177
0.707106781186548,0.707106781186548,1.,1.,0.707106781186548,          83P    178
0.707106781186548,1.,1.,0.707106781186548,0.707106781186548,1.,       83P    179
1.,0.707106781186548,0.707106781186548,1.,1.,-1.25,-1.5,0.,           83P    180
-1.25,-5.,0.,-1.25,-1.5,-1.25,-1.25,-5.,-1.25,0.,-1.5,-1.25,0.,       83P    181
-5.,-1.25,1.25,-1.5,-1.25,1.25,-5.,-1.25,1.25,-1.5,0.,1.25,-5.,       83P    182
0.,1.25,-1.5,1.25,1.25,-5.,1.25,0.,-1.5,1.25,0.,-5.,1.25,-1.25,       83P    183
-1.5,1.25,-1.25,-5.,1.25,-1.25,-1.5,0.,-1.25,-5.,0.,-1.4,1.4,         83P    184
-3.14159265358979,3.14159265358979;                                   83P    185
128,1,8,1,2,0,1,0,0,1,-6.63256855177057,-6.63256855177057,            85P    186
-4.18264027002286,-4.18264027002286,-3.14159265358979,                85P    187
-3.14159265358979,-3.14159265358979,-1.5707963267949,                 85P    188
-1.5707963267949,0.,0.,1.5707963267949,1.5707963267949,               85P    189
3.14159265358979,3.14159265358979,3.14159265358979,1.,1.,             85P    190
0.707106781186548,0.707106781186548,1.,1.,0.707106781186548,          85P    191
0.707106781186548,1.,1.,0.707106781186548,0.707106781186548,1.,       85P    192
1.,0.707106781186548,0.707106781186548,1.,1.,-1.2,                    85P    193
1.46995696904862,0.,-1.2,-1.46995696904862,0.,-1.2,                   85P    194
1.46995696904862,-1.2,-1.2,-1.46995696904862,-1.2,0.,                 85P    195
1.46995696904862,-1.2,0.,-1.46995696904862,-1.2,1.2,                  85P    196
1.46995696904862,-1.2,1.2,-1.46995696904862,-1.2,1.2,                 85P    197
1.46995696904862,0.,1.2,-1.46995696904862,0.,1.2,                     85P    198
1.46995696904862,1.2,1.2,-1.46995696904862,1.2,0.,                    85P    199
1.46995696904862,1.2,0.,-1.46995696904862,1.2,-1.2,                   85P    200
1.46995696904862,1.2,-1.2,-1.46995696904862,1.2,-1.2,                 85P    201
1.46995696904862,0.,-1.2,-1.46995696904862,0.,-6.63256855177057,      85P    202
-4.18264027002286,-3.14159265358979,3.14159265358979;                 85P    203
128,1,1,1,1,0,0,1,0,0,-0.201,-0.201,0.201,0.201,-0.201,-0.201,        87P    204
0.201,0.201,1.,1.,1.,1.,-2.01,-5.,2.01,-2.01,-5.,-2.01,2.01,-5.,      87P    205
2.01,2.01,-5.,-2.01,-0.201,0.201,-0.201,0.201;                        87P    206
128,1,8,1,2,0,1,0,0,1,-2.5,-2.5,2.5,2.5,-3.14159265358979,            89P    207
-3.14159265358979,-3.14159265358979,-1.5707963267949,                 89P    208
-1.5707963267949,0.,0.,1.5707963267949,1.5707963267949,               89P    209
3.14159265358979,3.14159265358979,3.14159265358979,1.,1.,             89P    210
0.707106781186548,0.707106781186548,1.,1.,0.707106781186548,          89P    211
0.707106781186548,1.,1.,0.707106781186548,0.707106781186548,1.,       89P    212
1.,0.707106781186548,0.707106781186548,1.,1.,-2.,5.,0.,-2.,-5.,       89P    213
0.,-2.,5.,2.,-2.,-5.,2.,0.,5.,2.,0.,-5.,2.,2.,5.,2.,2.,-5.,2.,        89P    214
2.,5.,0.,2.,-5.,0.,2.,5.,-2.,2.,-5.,-2.,0.,5.,-2.,0.,-5.,-2.,         89P    215
-2.,5.,-2.,-2.,-5.,-2.,-2.,5.,0.,-2.,-5.,0.,-2.5,2.5,                 89P    216
-3.14159265358979,3.14159265358979;                                   89P    217
128,1,1,1,1,0,0,1,0,0,-0.201,-0.201,0.201,0.201,-0.201,-0.201,        91P    218
0.201,0.201,1.,1.,1.,1.,-2.01,5.,-2.01,-2.01,5.,2.01,2.01,5.,         91P    219
-2.01,2.01,5.,2.01,-0.201,0.201,-0.201,0.201;                         91P    220
502,12,1.25,1.5,0.,-1.25,1.5,0.,-1.2,1.46995696904862,                93P    221
1.46957615897682D-16,1.25,5.,0.,-1.25,5.,0.,1.25,-1.5,0.,-1.25,       93P    222
-1.5,0.,-1.2,-1.46995696904862,-1.46957615897682D-16,1.25,-5.,        93P    223
0.,-1.25,-5.,0.,-2.,-5.,2.44929359829471D-16,-2.,5.,                  93P    224
2.44929359829471D-16;                                                 93P    225
504,18,41,93,1,93,2,43,93,2,93,3,45,93,3,93,3,47,93,2,93,1,49,        95P    226
93,4,93,5,51,93,5,93,4,53,93,5,93,2,55,93,6,93,7,57,93,7,93,8,        95P    227
59,93,8,93,8,61,93,7,93,6,63,93,9,93,10,65,93,10,93,9,67,93,10,       95P    228
93,7,69,93,8,93,3,71,93,11,93,11,73,93,12,93,12,75,93,12,93,11;       95P    229
406,1,13Hソリッド1;                                               97P    230
314,74.9019607843137,74.9019607843137,74.9019607843137,;              99P    231
S      1G      3D    100P    231                                        T      1
