ISO-10303-21;
HEADER;
/* Generated by software containing ST-Developer
 * from STEP Tools, Inc. (www.steptools.com) 
 */

FILE_DESCRIPTION(
/* description */ (''),
/* implementation_level */ '2;1');

FILE_NAME(
/* name */ 
'Y:\\2_OpticalHard\\08_Cage Systems\\C16\X2\FF7CFF98FF70FF7DFF9E\X0\\\
C16-RO-4\\C16-RO-4-10\\C16-RO-4-10.stp',
/* time_stamp */ '2020-03-30T13:59:53+09:00',
/* author */ ('e.nonaka'),
/* organization */ (''),
/* preprocessor_version */ 'ST-DEVELOPER v18',
/* originating_system */ 'Autodesk Inventor 2020',
/* authorisation */ '');

FILE_SCHEMA (('AUTOMOTIVE_DESIGN { 1 0 10303 214 3 1 1 }'));
ENDSEC;

DATA;
#10=MECHANICAL_DESIGN_GEOMETRIC_PRESENTATION_REPRESENTATION('',(#13),#271);
#11=SHAPE_REPRESENTATION_RELATIONSHIP('SRR','None',#278,#12);
#12=ADVANCED_BREP_SHAPE_REPRESENTATION('',(#14),#270);
#13=STYLED_ITEM('',(#287),#14);
#14=MANIFOLD_SOLID_BREP('\X2\30BD30EA30C330C9\X0\1',#141);
#15=FACE_BOUND('',#37,.T.);
#16=FACE_BOUND('',#40,.T.);
#17=PLANE('',#176);
#18=PLANE('',#180);
#19=CYLINDRICAL_SURFACE('',#165,1.25);
#20=CYLINDRICAL_SURFACE('',#172,1.25);
#21=CYLINDRICAL_SURFACE('',#175,1.2);
#22=CYLINDRICAL_SURFACE('',#178,2.);
#23=FACE_OUTER_BOUND('',#31,.T.);
#24=FACE_OUTER_BOUND('',#32,.T.);
#25=FACE_OUTER_BOUND('',#33,.T.);
#26=FACE_OUTER_BOUND('',#34,.T.);
#27=FACE_OUTER_BOUND('',#35,.T.);
#28=FACE_OUTER_BOUND('',#36,.T.);
#29=FACE_OUTER_BOUND('',#38,.T.);
#30=FACE_OUTER_BOUND('',#39,.T.);
#31=EDGE_LOOP('',(#95,#96,#97,#98,#99));
#32=EDGE_LOOP('',(#100,#101,#102,#103,#104,#105));
#33=EDGE_LOOP('',(#106,#107,#108,#109,#110));
#34=EDGE_LOOP('',(#111,#112,#113,#114,#115,#116));
#35=EDGE_LOOP('',(#117,#118,#119,#120));
#36=EDGE_LOOP('',(#121));
#37=EDGE_LOOP('',(#122,#123));
#38=EDGE_LOOP('',(#124,#125,#126,#127));
#39=EDGE_LOOP('',(#128));
#40=EDGE_LOOP('',(#129,#130));
#41=LINE('',#235,#47);
#42=LINE('',#243,#48);
#43=LINE('',#249,#49);
#44=LINE('',#257,#50);
#45=LINE('',#259,#51);
#46=LINE('',#266,#52);
#47=VECTOR('',#187,0.625);
#48=VECTOR('',#198,1.25);
#49=VECTOR('',#203,0.625);
#50=VECTOR('',#214,1.25);
#51=VECTOR('',#217,1.2);
#52=VECTOR('',#226,2.);
#53=CIRCLE('',#162,1.25);
#54=CIRCLE('',#163,1.2);
#55=CIRCLE('',#164,1.25);
#56=CIRCLE('',#166,1.25);
#57=CIRCLE('',#167,1.25);
#58=CIRCLE('',#169,1.25);
#59=CIRCLE('',#170,1.2);
#60=CIRCLE('',#171,1.25);
#61=CIRCLE('',#173,1.25);
#62=CIRCLE('',#174,1.25);
#63=CIRCLE('',#177,2.);
#64=CIRCLE('',#179,2.);
#65=VERTEX_POINT('',#231);
#66=VERTEX_POINT('',#232);
#67=VERTEX_POINT('',#234);
#68=VERTEX_POINT('',#239);
#69=VERTEX_POINT('',#240);
#70=VERTEX_POINT('',#245);
#71=VERTEX_POINT('',#246);
#72=VERTEX_POINT('',#248);
#73=VERTEX_POINT('',#253);
#74=VERTEX_POINT('',#254);
#75=VERTEX_POINT('',#261);
#76=VERTEX_POINT('',#264);
#77=EDGE_CURVE('',#65,#66,#53,.T.);
#78=EDGE_CURVE('',#66,#67,#41,.T.);
#79=EDGE_CURVE('',#67,#67,#54,.T.);
#80=EDGE_CURVE('',#66,#65,#55,.T.);
#81=EDGE_CURVE('',#68,#69,#56,.T.);
#82=EDGE_CURVE('',#69,#68,#57,.T.);
#83=EDGE_CURVE('',#69,#66,#42,.T.);
#84=EDGE_CURVE('',#70,#71,#58,.T.);
#85=EDGE_CURVE('',#71,#72,#43,.T.);
#86=EDGE_CURVE('',#72,#72,#59,.T.);
#87=EDGE_CURVE('',#71,#70,#60,.T.);
#88=EDGE_CURVE('',#73,#74,#61,.T.);
#89=EDGE_CURVE('',#74,#73,#62,.T.);
#90=EDGE_CURVE('',#74,#71,#44,.T.);
#91=EDGE_CURVE('',#72,#67,#45,.T.);
#92=EDGE_CURVE('',#75,#75,#63,.T.);
#93=EDGE_CURVE('',#76,#76,#64,.T.);
#94=EDGE_CURVE('',#76,#75,#46,.T.);
#95=ORIENTED_EDGE('',*,*,#77,.T.);
#96=ORIENTED_EDGE('',*,*,#78,.T.);
#97=ORIENTED_EDGE('',*,*,#79,.F.);
#98=ORIENTED_EDGE('',*,*,#78,.F.);
#99=ORIENTED_EDGE('',*,*,#80,.T.);
#100=ORIENTED_EDGE('',*,*,#81,.F.);
#101=ORIENTED_EDGE('',*,*,#82,.F.);
#102=ORIENTED_EDGE('',*,*,#83,.T.);
#103=ORIENTED_EDGE('',*,*,#77,.F.);
#104=ORIENTED_EDGE('',*,*,#80,.F.);
#105=ORIENTED_EDGE('',*,*,#83,.F.);
#106=ORIENTED_EDGE('',*,*,#84,.T.);
#107=ORIENTED_EDGE('',*,*,#85,.T.);
#108=ORIENTED_EDGE('',*,*,#86,.F.);
#109=ORIENTED_EDGE('',*,*,#85,.F.);
#110=ORIENTED_EDGE('',*,*,#87,.T.);
#111=ORIENTED_EDGE('',*,*,#88,.F.);
#112=ORIENTED_EDGE('',*,*,#89,.F.);
#113=ORIENTED_EDGE('',*,*,#90,.T.);
#114=ORIENTED_EDGE('',*,*,#84,.F.);
#115=ORIENTED_EDGE('',*,*,#87,.F.);
#116=ORIENTED_EDGE('',*,*,#90,.F.);
#117=ORIENTED_EDGE('',*,*,#86,.T.);
#118=ORIENTED_EDGE('',*,*,#91,.T.);
#119=ORIENTED_EDGE('',*,*,#79,.T.);
#120=ORIENTED_EDGE('',*,*,#91,.F.);
#121=ORIENTED_EDGE('',*,*,#92,.T.);
#122=ORIENTED_EDGE('',*,*,#88,.T.);
#123=ORIENTED_EDGE('',*,*,#89,.T.);
#124=ORIENTED_EDGE('',*,*,#93,.F.);
#125=ORIENTED_EDGE('',*,*,#94,.T.);
#126=ORIENTED_EDGE('',*,*,#92,.F.);
#127=ORIENTED_EDGE('',*,*,#94,.F.);
#128=ORIENTED_EDGE('',*,*,#93,.T.);
#129=ORIENTED_EDGE('',*,*,#81,.T.);
#130=ORIENTED_EDGE('',*,*,#82,.T.);
#131=CONICAL_SURFACE('',#161,0.625,1.02974425867665);
#132=CONICAL_SURFACE('',#168,0.625,1.02974425867665);
#133=ADVANCED_FACE('',(#23),#131,.F.);
#134=ADVANCED_FACE('',(#24),#19,.F.);
#135=ADVANCED_FACE('',(#25),#132,.F.);
#136=ADVANCED_FACE('',(#26),#20,.F.);
#137=ADVANCED_FACE('',(#27),#21,.F.);
#138=ADVANCED_FACE('',(#28,#15),#17,.F.);
#139=ADVANCED_FACE('',(#29),#22,.T.);
#140=ADVANCED_FACE('',(#30,#16),#18,.T.);
#141=CLOSED_SHELL('',(#133,#134,#135,#136,#137,#138,#139,#140));
#142=DERIVED_UNIT_ELEMENT(#144,1.);
#143=DERIVED_UNIT_ELEMENT(#273,3.);
#144=(
MASS_UNIT()
NAMED_UNIT(*)
SI_UNIT($,.GRAM.)
);
#145=DERIVED_UNIT((#142,#143));
#146=MEASURE_REPRESENTATION_ITEM('density measure',
POSITIVE_RATIO_MEASURE(7.85472),#145);
#147=PROPERTY_DEFINITION_REPRESENTATION(#152,#149);
#148=PROPERTY_DEFINITION_REPRESENTATION(#153,#150);
#149=REPRESENTATION('material name',(#151),#270);
#150=REPRESENTATION('density',(#146),#270);
#151=DESCRIPTIVE_REPRESENTATION_ITEM('\X2\30B930C630F330EC30B992FC\X0\ 
303','\X2\30B930C630F330EC30B992FC\X0\ 303');
#152=PROPERTY_DEFINITION('material property','material name',#280);
#153=PROPERTY_DEFINITION('material property','density of part',#280);
#154=DATE_TIME_ROLE('creation_date');
#155=APPLIED_DATE_AND_TIME_ASSIGNMENT(#156,#154,(#280));
#156=DATE_AND_TIME(#157,#158);
#157=CALENDAR_DATE(2016,25,11);
#158=LOCAL_TIME(8,19,49.,#159);
#159=COORDINATED_UNIVERSAL_TIME_OFFSET(0,0,.BEHIND.);
#160=AXIS2_PLACEMENT_3D('placement',#229,#181,#182);
#161=AXIS2_PLACEMENT_3D('',#230,#183,#184);
#162=AXIS2_PLACEMENT_3D('',#233,#185,#186);
#163=AXIS2_PLACEMENT_3D('',#236,#188,#189);
#164=AXIS2_PLACEMENT_3D('',#237,#190,#191);
#165=AXIS2_PLACEMENT_3D('',#238,#192,#193);
#166=AXIS2_PLACEMENT_3D('',#241,#194,#195);
#167=AXIS2_PLACEMENT_3D('',#242,#196,#197);
#168=AXIS2_PLACEMENT_3D('',#244,#199,#200);
#169=AXIS2_PLACEMENT_3D('',#247,#201,#202);
#170=AXIS2_PLACEMENT_3D('',#250,#204,#205);
#171=AXIS2_PLACEMENT_3D('',#251,#206,#207);
#172=AXIS2_PLACEMENT_3D('',#252,#208,#209);
#173=AXIS2_PLACEMENT_3D('',#255,#210,#211);
#174=AXIS2_PLACEMENT_3D('',#256,#212,#213);
#175=AXIS2_PLACEMENT_3D('',#258,#215,#216);
#176=AXIS2_PLACEMENT_3D('',#260,#218,#219);
#177=AXIS2_PLACEMENT_3D('',#262,#220,#221);
#178=AXIS2_PLACEMENT_3D('',#263,#222,#223);
#179=AXIS2_PLACEMENT_3D('',#265,#224,#225);
#180=AXIS2_PLACEMENT_3D('',#267,#227,#228);
#181=DIRECTION('axis',(0.,0.,1.));
#182=DIRECTION('refdir',(1.,0.,0.));
#183=DIRECTION('center_axis',(0.,1.,0.));
#184=DIRECTION('ref_axis',(1.,0.,0.));
#185=DIRECTION('center_axis',(0.,1.,0.));
#186=DIRECTION('ref_axis',(1.,0.,0.));
#187=DIRECTION('',(0.857167300702112,-0.515038074910054,-1.04972719113862E-16));
#188=DIRECTION('center_axis',(0.,1.,0.));
#189=DIRECTION('ref_axis',(1.,0.,0.));
#190=DIRECTION('center_axis',(0.,1.,0.));
#191=DIRECTION('ref_axis',(1.,0.,0.));
#192=DIRECTION('center_axis',(0.,1.,0.));
#193=DIRECTION('ref_axis',(1.,0.,0.));
#194=DIRECTION('center_axis',(0.,-1.,0.));
#195=DIRECTION('ref_axis',(1.,0.,0.));
#196=DIRECTION('center_axis',(0.,-1.,0.));
#197=DIRECTION('ref_axis',(1.,0.,0.));
#198=DIRECTION('',(0.,-1.,0.));
#199=DIRECTION('center_axis',(0.,-1.,0.));
#200=DIRECTION('ref_axis',(1.,0.,0.));
#201=DIRECTION('center_axis',(0.,-1.,0.));
#202=DIRECTION('ref_axis',(1.,0.,0.));
#203=DIRECTION('',(0.857167300702112,0.515038074910054,1.04972719113862E-16));
#204=DIRECTION('center_axis',(0.,-1.,0.));
#205=DIRECTION('ref_axis',(1.,0.,0.));
#206=DIRECTION('center_axis',(0.,-1.,0.));
#207=DIRECTION('ref_axis',(1.,0.,0.));
#208=DIRECTION('center_axis',(0.,-1.,0.));
#209=DIRECTION('ref_axis',(1.,0.,0.));
#210=DIRECTION('center_axis',(0.,1.,0.));
#211=DIRECTION('ref_axis',(1.,0.,0.));
#212=DIRECTION('center_axis',(0.,1.,0.));
#213=DIRECTION('ref_axis',(1.,0.,0.));
#214=DIRECTION('',(0.,1.,0.));
#215=DIRECTION('center_axis',(0.,-1.,0.));
#216=DIRECTION('ref_axis',(1.,0.,0.));
#217=DIRECTION('',(0.,1.,0.));
#218=DIRECTION('center_axis',(0.,1.,0.));
#219=DIRECTION('ref_axis',(0.,0.,1.));
#220=DIRECTION('center_axis',(0.,-1.,0.));
#221=DIRECTION('ref_axis',(1.,0.,0.));
#222=DIRECTION('center_axis',(0.,1.,0.));
#223=DIRECTION('ref_axis',(1.,0.,0.));
#224=DIRECTION('center_axis',(0.,1.,0.));
#225=DIRECTION('ref_axis',(1.,0.,0.));
#226=DIRECTION('',(0.,-1.,0.));
#227=DIRECTION('center_axis',(0.,1.,0.));
#228=DIRECTION('ref_axis',(0.,0.,1.));
#229=CARTESIAN_POINT('',(0.,0.,0.));
#230=CARTESIAN_POINT('Origin',(0.,1.12446211310777,0.));
#231=CARTESIAN_POINT('',(1.25,1.5,0.));
#232=CARTESIAN_POINT('',(-1.25,1.5,1.53080849893419E-16));
#233=CARTESIAN_POINT('Origin',(0.,1.5,0.));
#234=CARTESIAN_POINT('',(-1.2,1.46995696904862,1.46957615897682E-16));
#235=CARTESIAN_POINT('',(-0.625,1.12446211310777,7.65404249467096E-17));
#236=CARTESIAN_POINT('Origin',(0.,1.46995696904862,0.));
#237=CARTESIAN_POINT('Origin',(0.,1.5,0.));
#238=CARTESIAN_POINT('Origin',(0.,3.25,0.));
#239=CARTESIAN_POINT('',(1.25,5.,0.));
#240=CARTESIAN_POINT('',(-1.25,5.,1.53080849893419E-16));
#241=CARTESIAN_POINT('Origin',(0.,5.,0.));
#242=CARTESIAN_POINT('Origin',(0.,5.,0.));
#243=CARTESIAN_POINT('',(-1.25,3.25,1.53080849893419E-16));
#244=CARTESIAN_POINT('Origin',(0.,-1.12446211310777,0.));
#245=CARTESIAN_POINT('',(1.25,-1.5,0.));
#246=CARTESIAN_POINT('',(-1.25,-1.5,-1.53080849893419E-16));
#247=CARTESIAN_POINT('Origin',(0.,-1.5,0.));
#248=CARTESIAN_POINT('',(-1.2,-1.46995696904862,-1.46957615897682E-16));
#249=CARTESIAN_POINT('',(-0.625,-1.12446211310777,-7.65404249467096E-17));
#250=CARTESIAN_POINT('Origin',(0.,-1.46995696904862,0.));
#251=CARTESIAN_POINT('Origin',(0.,-1.5,0.));
#252=CARTESIAN_POINT('Origin',(0.,-3.25,0.));
#253=CARTESIAN_POINT('',(1.25,-5.,0.));
#254=CARTESIAN_POINT('',(-1.25,-5.,-1.53080849893419E-16));
#255=CARTESIAN_POINT('Origin',(0.,-5.,0.));
#256=CARTESIAN_POINT('Origin',(0.,-5.,0.));
#257=CARTESIAN_POINT('',(-1.25,-3.25,-1.53080849893419E-16));
#258=CARTESIAN_POINT('Origin',(0.,6.48912529307606,0.));
#259=CARTESIAN_POINT('',(-1.2,6.48912529307606,-1.46957615897682E-16));
#260=CARTESIAN_POINT('Origin',(1.9388312758347E-16,-5.,-2.89120579329468E-17));
#261=CARTESIAN_POINT('',(-2.,-5.,2.44929359829471E-16));
#262=CARTESIAN_POINT('Origin',(0.,-5.,0.));
#263=CARTESIAN_POINT('Origin',(0.,0.,0.));
#264=CARTESIAN_POINT('',(-2.,5.,2.44929359829471E-16));
#265=CARTESIAN_POINT('Origin',(0.,5.,0.));
#266=CARTESIAN_POINT('',(-2.,0.,2.44929359829471E-16));
#267=CARTESIAN_POINT('Origin',(1.9388312758347E-16,5.,-2.89120579329468E-17));
#268=UNCERTAINTY_MEASURE_WITH_UNIT(LENGTH_MEASURE(0.01),#272,
'DISTANCE_ACCURACY_VALUE',
'Maximum model space distance between geometric entities at asserted c
onnectivities');
#269=UNCERTAINTY_MEASURE_WITH_UNIT(LENGTH_MEASURE(0.01),#272,
'DISTANCE_ACCURACY_VALUE',
'Maximum model space distance between geometric entities at asserted c
onnectivities');
#270=(
GEOMETRIC_REPRESENTATION_CONTEXT(3)
GLOBAL_UNCERTAINTY_ASSIGNED_CONTEXT((#268))
GLOBAL_UNIT_ASSIGNED_CONTEXT((#272,#274,#275))
REPRESENTATION_CONTEXT('','3D')
);
#271=(
GEOMETRIC_REPRESENTATION_CONTEXT(3)
GLOBAL_UNCERTAINTY_ASSIGNED_CONTEXT((#269))
GLOBAL_UNIT_ASSIGNED_CONTEXT((#272,#274,#275))
REPRESENTATION_CONTEXT('','3D')
);
#272=(
LENGTH_UNIT()
NAMED_UNIT(*)
SI_UNIT(.MILLI.,.METRE.)
);
#273=(
LENGTH_UNIT()
NAMED_UNIT(*)
SI_UNIT(.CENTI.,.METRE.)
);
#274=(
NAMED_UNIT(*)
PLANE_ANGLE_UNIT()
SI_UNIT($,.RADIAN.)
);
#275=(
NAMED_UNIT(*)
SI_UNIT($,.STERADIAN.)
SOLID_ANGLE_UNIT()
);
#276=SHAPE_DEFINITION_REPRESENTATION(#277,#278);
#277=PRODUCT_DEFINITION_SHAPE('',$,#280);
#278=SHAPE_REPRESENTATION('',(#160),#270);
#279=PRODUCT_DEFINITION_CONTEXT('part definition',#284,'design');
#280=PRODUCT_DEFINITION('C16RO410-M03-19001  A','C16RO410-M03-19001',#281,
#279);
#281=PRODUCT_DEFINITION_FORMATION('',$,#286);
#282=PRODUCT_RELATED_PRODUCT_CATEGORY('C16RO410-M03-19001',
'C16RO410-M03-19001',(#286));
#283=APPLICATION_PROTOCOL_DEFINITION('international standard',
'automotive_design',2009,#284);
#284=APPLICATION_CONTEXT(
'Core Data for Automotive Mechanical Design Process');
#285=PRODUCT_CONTEXT('part definition',#284,'mechanical');
#286=PRODUCT('C16RO410-M03-19001  A','C16RO410-M03-19001',$,(#285));
#287=PRESENTATION_STYLE_ASSIGNMENT((#288));
#288=SURFACE_STYLE_USAGE(.BOTH.,#291);
#289=SURFACE_STYLE_RENDERING_WITH_PROPERTIES($,#295,(#290));
#290=SURFACE_STYLE_TRANSPARENT(0.);
#291=SURFACE_SIDE_STYLE('',(#292,#289));
#292=SURFACE_STYLE_FILL_AREA(#293);
#293=FILL_AREA_STYLE('',(#294));
#294=FILL_AREA_STYLE_COLOUR('',#295);
#295=COLOUR_RGB('',0.749019607843137,0.749019607843137,0.749019607843137);
ENDSEC;
END-ISO-10303-21;
