                                                                        S      1
,,,10HC16-RO-4-5,22HAutodesk Inventor 2020,7Hunknown,32,38,7,99,15,,1., G      1
2,2HMM,1,0.08,15H20200330.134551,0.01,10000.,6Hnonaka,,11,0,15H20161125.G      2
081949;                                                                 G      3
     186       1                                                00000000D      1
     186             -99       1       0                               0D      2
     514       2                                                00010000D      3
     514                       1       1                               0D      4
     510       3                                                00010000D      5
     510             -99       1       1                               0D      6
     510       4                                                00010000D      7
     510             -99       1       1                               0D      8
     510       5                                                00010000D      9
     510             -99       1       1                               0D     10
     510       6                                                00010000D     11
     510             -99       1       1                               0D     12
     510       7                                                00010000D     13
     510             -99       1       1                               0D     14
     510       8                                                00010000D     15
     510             -99       1       1                               0D     16
     510       9                                                00010000D     17
     510             -99       1       1                               0D     18
     510      10                                                00010000D     19
     510             -99       1       1                               0D     20
     508      11                                                00010000D     21
     508                       2       1                               0D     22
     508      13                                                00010000D     23
     508                       1       1                               0D     24
     508      14                                                00010000D     25
     508                       1       1                               0D     26
     508      15                                                00010000D     27
     508                       2       1                               0D     28
     508      17                                                00010000D     29
     508                       1       1                               0D     30
     508      18                                                00010000D     31
     508                       1       1                               0D     32
     508      19                                                00010000D     33
     508                       1       1                               0D     34
     508      20                                                00010000D     35
     508                       1       1                               0D     36
     508      21                                                00010000D     37
     508                       1       1                               0D     38
     508      22                                                00010000D     39
     508                       1       1                               0D     40
     508      23                                                00010000D     41
     508                       1       1                               0D     42
     508      24                                                00010000D     43
     508                       1       1                               0D     44
     126      25                                                00010000D     45
     126       0               5       0                               0D     46
     126      30                                                00010000D     47
     126       0               7       0                               0D     48
     126      37                                                00010000D     49
     126       0               2       0                               0D     50
     126      39                                                00010000D     51
     126       0               5       0                               0D     52
     126      44                                                00010000D     53
     126       0               7       0                               0D     54
     126      51                                                00010000D     55
     126       0              10       0                               0D     56
     126      61                                                00010000D     57
     126       0               5       0                               0D     58
     126      66                                                00010000D     59
     126       0               7       0                               0D     60
     126      73                                                00010000D     61
     126       0               2       0                               0D     62
     126      75                                                00010000D     63
     126       0               5       0                               0D     64
     126      80                                                00010000D     65
     126       0               7       0                               0D     66
     126      87                                                00010000D     67
     126       0              10       0                               0D     68
     126      97                                                00010000D     69
     126       0               3       0                               0D     70
     126     100                                                00010000D     71
     126       0              10       0                               0D     72
     126     110                                                00010000D     73
     126       0               9       0                               0D     74
     126     119                                                00010000D     75
     126       0               2       0                               0D     76
     128     121                                                00010000D     77
     128       0     -99      12       0                               0D     78
     128     133                                                00010000D     79
     128       0     -99       3       0                               0D     80
     128     136                                                00010000D     81
     128       0     -99      12       0                               0D     82
     128     148                                                00010000D     83
     128       0     -99       3       0                               0D     84
     128     151                                                00010000D     85
     128       0     -99      13       0                               0D     86
     128     164                                                00010000D     87
     128       0     -99       3       0                               0D     88
     128     167                                                00010000D     89
     128       0     -99      11       0                               0D     90
     128     178                                                00010000D     91
     128       0     -99       3       0                               0D     92
     502     181                                                00010000D     93
     502                       4       1                               0D     94
     504     185                                                00010001D     95
     504                       4       1                               0D     96
     406     189                                                00000000D     97
     406                       1      15                               0D     98
     314     190                                                00000200D     99
     314                       1       0                               0D    100
186,3,1,0,0,1,97;                                                      1P      1
514,8,5,1,7,1,9,1,11,1,13,1,15,1,17,1,19,1;                            3P      2
510,77,1,1,21;                                                         5P      3
510,79,2,1,23,25;                                                      7P      4
510,81,1,1,27;                                                         9P      5
510,83,2,1,29,31;                                                     11P      6
510,85,1,1,33;                                                        13P      7
510,87,2,1,35,37;                                                     15P      8
510,89,1,1,39;                                                        17P      9
510,91,2,1,41,43;                                                     19P     10
508,6,0,95,1,0,0,0,95,2,0,0,0,95,3,1,0,0,95,4,0,0,0,95,5,0,0,0,       21P     11
95,3,0,0;                                                             21P     12
508,2,0,95,4,1,0,0,95,5,1,0;                                          23P     13
508,1,0,95,6,0,0;                                                     25P     14
508,6,0,95,7,0,0,0,95,8,0,0,0,95,9,1,0,0,95,10,0,0,0,95,11,0,0,       27P     15
0,95,9,0,0;                                                           27P     16
508,2,0,95,10,1,0,0,95,11,1,0;                                        29P     17
508,1,0,95,12,0,0;                                                    31P     18
508,4,0,95,12,1,0,0,95,13,1,0,0,95,6,1,0,0,95,13,0,0;                 33P     19
508,1,0,95,14,1,0;                                                    35P     20
508,2,0,95,7,1,0,0,95,8,1,0;                                          37P     21
508,4,0,95,15,0,0,0,95,16,1,0,0,95,14,0,0,0,95,16,0,0;                39P     22
508,1,0,95,15,1,0;                                                    41P     23
508,2,0,95,1,1,0,0,95,2,1,0;                                          43P     24
126,4,2,0,0,0,0,0.,0.,0.,1.5707963267949,1.5707963267949,             45P     25
3.14159265358979,3.14159265358979,3.14159265358979,1.,                45P     26
0.707106781186548,1.,0.707106781186548,1.,1.25,2.5,0.,1.25,2.5,       45P     27
1.25,7.65404249467096D-17,2.5,1.25,-1.25,2.5,1.25,-1.25,2.5,          45P     28
1.53080849893419D-16,0.,3.14159265358979,0.,0.,0.;                    45P     29
126,4,2,0,0,0,0,3.14159265358979,3.14159265358979,                    47P     30
3.14159265358979,4.71238898038469,4.71238898038469,                   47P     31
6.28318530717959,6.28318530717959,6.28318530717959,1.,                47P     32
0.707106781186548,1.,0.707106781186547,1.,-1.25,2.5,                  47P     33
1.53080849893419D-16,-1.25,2.5,-1.25,-2.29621274840129D-16,2.5,       47P     34
-1.25,1.25,2.5,-1.25,1.25,2.5,-3.06161699786838D-16,                  47P     35
3.14159265358979,6.28318530717959,0.,0.,0.;                           47P     36
126,1,1,0,0,1,0,-0.8,-0.8,0.8,0.8,1.,1.,-1.25,2.5,0.,-1.25,0.5,       49P     37
0.,-0.8,0.8,0.,0.,0.;                                                 49P     38
126,4,2,0,0,0,0,0.,0.,0.,1.5707963267949,1.5707963267949,             51P     39
3.14159265358979,3.14159265358979,3.14159265358979,1.,                51P     40
0.707106781186548,1.,0.707106781186548,1.,1.25,0.5,0.,1.25,0.5,       51P     41
-1.25,7.65404249467096D-17,0.5,-1.25,-1.25,0.5,-1.25,-1.25,0.5,       51P     42
-1.53080849893419D-16,0.,3.14159265358979,0.,0.,0.;                   51P     43
126,4,2,0,0,0,0,3.14159265358979,3.14159265358979,                    53P     44
3.14159265358979,4.71238898038469,4.71238898038469,                   53P     45
6.28318530717959,6.28318530717959,6.28318530717959,1.,                53P     46
0.707106781186548,1.,0.707106781186547,1.,-1.25,0.5,                  53P     47
-1.53080849893419D-16,-1.25,0.5,1.25,-2.29621274840129D-16,0.5,       53P     48
1.25,1.25,0.5,1.25,1.25,0.5,3.06161699786838D-16,                     53P     49
3.14159265358979,6.28318530717959,0.,0.,0.;                           53P     50
126,8,2,0,1,0,0,-3.14159265358979,-3.14159265358979,                  55P     51
-3.14159265358979,-1.5707963267949,-1.5707963267949,0.,0.,            55P     52
1.5707963267949,1.5707963267949,3.14159265358979,                     55P     53
3.14159265358979,3.14159265358979,1.,0.707106781186548,1.,            55P     54
0.707106781186548,1.,0.707106781186548,1.,0.707106781186548,1.,       55P     55
-1.2,0.5,1.46957615897682D-16,-1.2,0.5,1.2,7.34788079488412D-17,      55P     56
0.5,1.2,1.2,0.5,1.2,1.2,0.5,0.,1.2,0.5,-1.2,                          55P     57
7.34788079488412D-17,0.5,-1.2,-1.2,0.5,-1.2,-1.2,0.5,                 55P     58
-1.46957615897682D-16,-3.14159265358979,3.14159265358979,0.,0.,       55P     59
0.;                                                                   55P     60
126,4,2,0,0,0,0,0.,0.,0.,1.5707963267949,1.5707963267949,             57P     61
3.14159265358979,3.14159265358979,3.14159265358979,1.,                57P     62
0.707106781186548,1.,0.707106781186548,1.,1.25,-2.5,0.,1.25,          57P     63
-2.5,-1.25,7.65404249467096D-17,-2.5,-1.25,-1.25,-2.5,-1.25,          57P     64
-1.25,-2.5,-1.53080849893419D-16,0.,3.14159265358979,0.,0.,0.;        57P     65
126,4,2,0,0,0,0,3.14159265358979,3.14159265358979,                    59P     66
3.14159265358979,4.71238898038469,4.71238898038469,                   59P     67
6.28318530717959,6.28318530717959,6.28318530717959,1.,                59P     68
0.707106781186548,1.,0.707106781186547,1.,-1.25,-2.5,                 59P     69
-1.53080849893419D-16,-1.25,-2.5,1.25,-2.29621274840129D-16,          59P     70
-2.5,1.25,1.25,-2.5,1.25,1.25,-2.5,3.06161699786838D-16,              59P     71
3.14159265358979,6.28318530717959,0.,0.,0.;                           59P     72
126,1,1,0,0,1,0,-0.8,-0.8,0.8,0.8,1.,1.,-1.25,-2.5,0.,-1.25,          61P     73
-0.5,0.,-0.8,0.8,0.,0.,0.;                                            61P     74
126,4,2,0,0,0,0,0.,0.,0.,1.5707963267949,1.5707963267949,             63P     75
3.14159265358979,3.14159265358979,3.14159265358979,1.,                63P     76
0.707106781186548,1.,0.707106781186548,1.,1.25,-0.5,0.,1.25,          63P     77
-0.5,1.25,7.65404249467096D-17,-0.5,1.25,-1.25,-0.5,1.25,-1.25,       63P     78
-0.5,1.53080849893419D-16,0.,3.14159265358979,0.,0.,0.;               63P     79
126,4,2,0,0,0,0,3.14159265358979,3.14159265358979,                    65P     80
3.14159265358979,4.71238898038469,4.71238898038469,                   65P     81
6.28318530717959,6.28318530717959,6.28318530717959,1.,                65P     82
0.707106781186548,1.,0.707106781186547,1.,-1.25,-0.5,                 65P     83
1.53080849893419D-16,-1.25,-0.5,-1.25,-2.29621274840129D-16,          65P     84
-0.5,-1.25,1.25,-0.5,-1.25,1.25,-0.5,-3.06161699786838D-16,           65P     85
3.14159265358979,6.28318530717959,0.,0.,0.;                           65P     86
126,8,2,0,1,0,0,-3.14159265358979,-3.14159265358979,                  67P     87
-3.14159265358979,-1.5707963267949,-1.5707963267949,0.,0.,            67P     88
1.5707963267949,1.5707963267949,3.14159265358979,                     67P     89
3.14159265358979,3.14159265358979,1.,0.707106781186548,1.,            67P     90
0.707106781186548,1.,0.707106781186548,1.,0.707106781186548,1.,       67P     91
-1.2,-0.5,-1.46957615897682D-16,-1.2,-0.5,-1.2,                       67P     92
7.34788079488412D-17,-0.5,-1.2,1.2,-0.5,-1.2,1.2,-0.5,0.,1.2,         67P     93
-0.5,1.2,7.34788079488412D-17,-0.5,1.2,-1.2,-0.5,1.2,-1.2,-0.5,       67P     94
1.46957615897682D-16,-3.14159265358979,3.14159265358979,0.,0.,        67P     95
0.;                                                                   67P     96
126,1,1,0,0,1,0,-4.62486202939229,-4.62486202939229,                  69P     97
-3.79152869605896,-3.79152869605896,1.,1.,-1.2,-0.5,0.,-1.2,0.5,      69P     98
0.,-4.62486202939229,-3.79152869605896,0.,0.,0.;                      69P     99
126,8,2,0,1,0,0,-3.14159265358979,-3.14159265358979,                  71P    100
-3.14159265358979,-1.5707963267949,-1.5707963267949,0.,0.,            71P    101
1.5707963267949,1.5707963267949,3.14159265358979,                     71P    102
3.14159265358979,3.14159265358979,1.,0.707106781186548,1.,            71P    103
0.707106781186548,1.,0.707106781186548,1.,0.707106781186548,1.,       71P    104
-2.,-2.5,-2.44929359829471D-16,-2.,-2.5,-2.,                          71P    105
1.22464679914735D-16,-2.5,-2.,2.,-2.5,-2.,2.,-2.5,0.,2.,-2.5,2.,      71P    106
1.22464679914735D-16,-2.5,2.,-2.,-2.5,2.,-2.,-2.5,                    71P    107
2.44929359829471D-16,-3.14159265358979,3.14159265358979,0.,0.,        71P    108
0.;                                                                   71P    109
126,8,2,0,1,0,0,-3.14159265358979,-3.14159265358979,                  73P    110
-3.14159265358979,-1.5707963267949,-1.5707963267949,0.,0.,            73P    111
1.5707963267949,1.5707963267949,3.14159265358979,                     73P    112
3.14159265358979,3.14159265358979,1.,0.707106781186548,1.,            73P    113
0.707106781186548,1.,0.707106781186548,1.,0.707106781186548,1.,       73P    114
-2.,2.5,2.44929359829471D-16,-2.,2.5,2.,1.22464679914735D-16,         73P    115
2.5,2.,2.,2.5,2.,2.,2.5,0.,2.,2.5,-2.,1.22464679914735D-16,2.5,       73P    116
-2.,-2.,2.5,-2.,-2.,2.5,-2.44929359829471D-16,-3.14159265358979,      73P    117
3.14159265358979,0.,0.,0.;                                            73P    118
126,1,1,0,0,1,0,-1.25,-1.25,1.25,1.25,1.,1.,-2.,2.5,0.,-2.,-2.5,      75P    119
0.,-1.25,1.25,0.,0.,0.;                                               75P    120
128,1,8,1,2,0,1,0,0,1,-0.8,-0.8,0.8,0.8,-3.14159265358979,            77P    121
-3.14159265358979,-3.14159265358979,-1.5707963267949,                 77P    122
-1.5707963267949,0.,0.,1.5707963267949,1.5707963267949,               77P    123
3.14159265358979,3.14159265358979,3.14159265358979,1.,1.,             77P    124
0.707106781186548,0.707106781186548,1.,1.,0.707106781186548,          77P    125
0.707106781186548,1.,1.,0.707106781186548,0.707106781186548,1.,       77P    126
1.,0.707106781186548,0.707106781186548,1.,1.,-1.25,0.5,0.,-1.25,      77P    127
2.5,0.,-1.25,0.5,1.25,-1.25,2.5,1.25,0.,0.5,1.25,0.,2.5,1.25,         77P    128
1.25,0.5,1.25,1.25,2.5,1.25,1.25,0.5,0.,1.25,2.5,0.,1.25,0.5,         77P    129
-1.25,1.25,2.5,-1.25,0.,0.5,-1.25,0.,2.5,-1.25,-1.25,0.5,-1.25,       77P    130
-1.25,2.5,-1.25,-1.25,0.5,0.,-1.25,2.5,0.,-0.8,0.8,                   77P    131
-3.14159265358979,3.14159265358979;                                   77P    132
128,1,1,1,1,0,0,1,0,0,-0.126,-0.126,0.126,0.126,-0.126,-0.126,        79P    133
0.126,0.126,1.,1.,1.,1.,-1.26,0.5,1.26,1.26,0.5,1.26,-1.26,0.5,       79P    134
-1.26,1.26,0.5,-1.26,-0.126,0.126,-0.126,0.126;                       79P    135
128,1,8,1,2,0,1,0,0,1,-0.8,-0.8,0.8,0.8,-3.14159265358979,            81P    136
-3.14159265358979,-3.14159265358979,-1.5707963267949,                 81P    137
-1.5707963267949,0.,0.,1.5707963267949,1.5707963267949,               81P    138
3.14159265358979,3.14159265358979,3.14159265358979,1.,1.,             81P    139
0.707106781186548,0.707106781186548,1.,1.,0.707106781186548,          81P    140
0.707106781186548,1.,1.,0.707106781186548,0.707106781186548,1.,       81P    141
1.,0.707106781186548,0.707106781186548,1.,1.,-1.25,-0.5,0.,           81P    142
-1.25,-2.5,0.,-1.25,-0.5,-1.25,-1.25,-2.5,-1.25,0.,-0.5,-1.25,        81P    143
0.,-2.5,-1.25,1.25,-0.5,-1.25,1.25,-2.5,-1.25,1.25,-0.5,0.,1.25,      81P    144
-2.5,0.,1.25,-0.5,1.25,1.25,-2.5,1.25,0.,-0.5,1.25,0.,-2.5,1.25,      81P    145
-1.25,-0.5,1.25,-1.25,-2.5,1.25,-1.25,-0.5,0.,-1.25,-2.5,0.,          81P    146
-0.8,0.8,-3.14159265358979,3.14159265358979;                          81P    147
128,1,1,1,1,0,0,1,0,0,-0.126,-0.126,0.126,0.126,-0.126,-0.126,        83P    148
0.126,0.126,1.,1.,1.,1.,-1.26,-0.5,-1.26,1.26,-0.5,-1.26,-1.26,       83P    149
-0.5,1.26,1.26,-0.5,1.26,-0.126,0.126,-0.126,0.126;                   83P    150
128,1,8,1,2,0,1,0,0,1,-4.62486202939229,-4.62486202939229,            85P    151
-3.79152869605896,-3.79152869605896,-3.14159265358979,                85P    152
-3.14159265358979,-3.14159265358979,-1.5707963267949,                 85P    153
-1.5707963267949,0.,0.,1.5707963267949,1.5707963267949,               85P    154
3.14159265358979,3.14159265358979,3.14159265358979,1.,1.,             85P    155
0.707106781186548,0.707106781186548,1.,1.,0.707106781186548,          85P    156
0.707106781186548,1.,1.,0.707106781186548,0.707106781186548,1.,       85P    157
1.,0.707106781186548,0.707106781186548,1.,1.,-1.2,0.5,0.,-1.2,        85P    158
-0.5,0.,-1.2,0.5,-1.2,-1.2,-0.5,-1.2,0.,0.5,-1.2,0.,-0.5,-1.2,        85P    159
1.2,0.5,-1.2,1.2,-0.5,-1.2,1.2,0.5,0.,1.2,-0.5,0.,1.2,0.5,1.2,        85P    160
1.2,-0.5,1.2,0.,0.5,1.2,0.,-0.5,1.2,-1.2,0.5,1.2,-1.2,-0.5,1.2,       85P    161
-1.2,0.5,0.,-1.2,-0.5,0.,-4.62486202939229,-3.79152869605896,         85P    162
-3.14159265358979,3.14159265358979;                                   85P    163
128,1,1,1,1,0,0,1,0,0,-0.201,-0.201,0.201,0.201,-0.201,-0.201,        87P    164
0.201,0.201,1.,1.,1.,1.,-2.01,-2.5,2.01,-2.01,-2.5,-2.01,2.01,        87P    165
-2.5,2.01,2.01,-2.5,-2.01,-0.201,0.201,-0.201,0.201;                  87P    166
128,1,8,1,2,0,1,0,0,1,-1.25,-1.25,1.25,1.25,-3.14159265358979,        89P    167
-3.14159265358979,-3.14159265358979,-1.5707963267949,                 89P    168
-1.5707963267949,0.,0.,1.5707963267949,1.5707963267949,               89P    169
3.14159265358979,3.14159265358979,3.14159265358979,1.,1.,             89P    170
0.707106781186548,0.707106781186548,1.,1.,0.707106781186548,          89P    171
0.707106781186548,1.,1.,0.707106781186548,0.707106781186548,1.,       89P    172
1.,0.707106781186548,0.707106781186548,1.,1.,-2.,2.5,0.,-2.,          89P    173
-2.5,0.,-2.,2.5,2.,-2.,-2.5,2.,0.,2.5,2.,0.,-2.5,2.,2.,2.5,2.,        89P    174
2.,-2.5,2.,2.,2.5,0.,2.,-2.5,0.,2.,2.5,-2.,2.,-2.5,-2.,0.,2.5,        89P    175
-2.,0.,-2.5,-2.,-2.,2.5,-2.,-2.,-2.5,-2.,-2.,2.5,0.,-2.,-2.5,0.,      89P    176
-1.25,1.25,-3.14159265358979,3.14159265358979;                        89P    177
128,1,1,1,1,0,0,1,0,0,-0.201,-0.201,0.201,0.201,-0.201,-0.201,        91P    178
0.201,0.201,1.,1.,1.,1.,-2.01,2.5,-2.01,-2.01,2.5,2.01,2.01,2.5,      91P    179
-2.01,2.01,2.5,2.01,-0.201,0.201,-0.201,0.201;                        91P    180
502,12,1.25,2.5,0.,-1.25,2.5,0.,-1.25,0.5,0.,1.25,0.5,0.,-1.2,        93P    181
0.5,1.46957615897682D-16,1.25,-2.5,0.,-1.25,-2.5,0.,-1.25,-0.5,       93P    182
0.,1.25,-0.5,0.,-1.2,-0.5,-1.46957615897682D-16,-2.,-2.5,             93P    183
2.44929359829471D-16,-2.,2.5,2.44929359829471D-16;                    93P    184
504,16,45,93,1,93,2,47,93,2,93,1,49,93,2,93,3,51,93,4,93,3,53,        95P    185
93,3,93,4,55,93,5,93,5,57,93,6,93,7,59,93,7,93,6,61,93,7,93,8,        95P    186
63,93,9,93,8,65,93,8,93,9,67,93,10,93,10,69,93,10,93,5,71,93,11,      95P    187
93,11,73,93,12,93,12,75,93,12,93,11;                                  95P    188
406,1,13Hソリッド1;                                               97P    189
314,74.9019607843137,74.9019607843137,74.9019607843137,;              99P    190
S      1G      3D    100P    190                                        T      1
