ISO-10303-21;
HEADER;
/* Generated by software containing ST-Developer
 * from STEP Tools, Inc. (www.steptools.com) 
 */

FILE_DESCRIPTION(
/* description */ (''),
/* implementation_level */ '2;1');

FILE_NAME(
/* name */ 
'Y:\\2_OpticalHard\\08_Cage Systems\\C16\X2\FF7CFF98FF70FF7DFF9E\X0\\\
C16-RO-4\\C16-RO-4-5.stp',
/* time_stamp */ '2020-03-30T13:46:17+09:00',
/* author */ ('e.nonaka'),
/* organization */ (''),
/* preprocessor_version */ 'ST-DEVELOPER v18',
/* originating_system */ 'Autodesk Inventor 2020',
/* authorisation */ '');

FILE_SCHEMA (('AUTOMOTIVE_DESIGN { 1 0 10303 214 3 1 1 }'));
ENDSEC;

DATA;
#10=MECHANICAL_DESIGN_GEOMETRIC_PRESENTATION_REPRESENTATION('',(#13),#261);
#11=SHAPE_REPRESENTATION_RELATIONSHIP('SRR','None',#268,#12);
#12=ADVANCED_BREP_SHAPE_REPRESENTATION('',(#14),#260);
#13=STYLED_ITEM('',(#277),#14);
#14=MANIFOLD_SOLID_BREP('\X2\30BD30EA30C330C9\X0\1',#135);
#15=FACE_BOUND('',#33,.T.);
#16=FACE_BOUND('',#36,.T.);
#17=FACE_BOUND('',#39,.T.);
#18=FACE_BOUND('',#42,.T.);
#19=PLANE('',#160);
#20=PLANE('',#167);
#21=PLANE('',#170);
#22=PLANE('',#174);
#23=FACE_OUTER_BOUND('',#31,.T.);
#24=FACE_OUTER_BOUND('',#32,.T.);
#25=FACE_OUTER_BOUND('',#34,.T.);
#26=FACE_OUTER_BOUND('',#35,.T.);
#27=FACE_OUTER_BOUND('',#37,.T.);
#28=FACE_OUTER_BOUND('',#38,.T.);
#29=FACE_OUTER_BOUND('',#40,.T.);
#30=FACE_OUTER_BOUND('',#41,.T.);
#31=EDGE_LOOP('',(#91,#92,#93,#94,#95,#96));
#32=EDGE_LOOP('',(#97,#98));
#33=EDGE_LOOP('',(#99));
#34=EDGE_LOOP('',(#100,#101,#102,#103,#104,#105));
#35=EDGE_LOOP('',(#106,#107));
#36=EDGE_LOOP('',(#108));
#37=EDGE_LOOP('',(#109,#110,#111,#112));
#38=EDGE_LOOP('',(#113));
#39=EDGE_LOOP('',(#114,#115));
#40=EDGE_LOOP('',(#116,#117,#118,#119));
#41=EDGE_LOOP('',(#120));
#42=EDGE_LOOP('',(#121,#122));
#43=LINE('',#228,#47);
#44=LINE('',#241,#48);
#45=LINE('',#249,#49);
#46=LINE('',#256,#50);
#47=VECTOR('',#183,1.25);
#48=VECTOR('',#198,1.25);
#49=VECTOR('',#209,1.2);
#50=VECTOR('',#218,2.);
#51=CIRCLE('',#156,1.25);
#52=CIRCLE('',#157,1.25);
#53=CIRCLE('',#158,1.25);
#54=CIRCLE('',#159,1.25);
#55=CIRCLE('',#161,1.2);
#56=CIRCLE('',#163,1.25);
#57=CIRCLE('',#164,1.25);
#58=CIRCLE('',#165,1.25);
#59=CIRCLE('',#166,1.25);
#60=CIRCLE('',#168,1.2);
#61=CIRCLE('',#171,2.);
#62=CIRCLE('',#173,2.);
#63=VERTEX_POINT('',#223);
#64=VERTEX_POINT('',#224);
#65=VERTEX_POINT('',#227);
#66=VERTEX_POINT('',#229);
#67=VERTEX_POINT('',#233);
#68=VERTEX_POINT('',#236);
#69=VERTEX_POINT('',#237);
#70=VERTEX_POINT('',#240);
#71=VERTEX_POINT('',#242);
#72=VERTEX_POINT('',#246);
#73=VERTEX_POINT('',#251);
#74=VERTEX_POINT('',#254);
#75=EDGE_CURVE('',#63,#64,#51,.T.);
#76=EDGE_CURVE('',#64,#63,#52,.T.);
#77=EDGE_CURVE('',#64,#65,#43,.T.);
#78=EDGE_CURVE('',#66,#65,#53,.T.);
#79=EDGE_CURVE('',#65,#66,#54,.T.);
#80=EDGE_CURVE('',#67,#67,#55,.T.);
#81=EDGE_CURVE('',#68,#69,#56,.T.);
#82=EDGE_CURVE('',#69,#68,#57,.T.);
#83=EDGE_CURVE('',#69,#70,#44,.T.);
#84=EDGE_CURVE('',#71,#70,#58,.T.);
#85=EDGE_CURVE('',#70,#71,#59,.T.);
#86=EDGE_CURVE('',#72,#72,#60,.T.);
#87=EDGE_CURVE('',#72,#67,#45,.T.);
#88=EDGE_CURVE('',#73,#73,#61,.T.);
#89=EDGE_CURVE('',#74,#74,#62,.T.);
#90=EDGE_CURVE('',#74,#73,#46,.T.);
#91=ORIENTED_EDGE('',*,*,#75,.F.);
#92=ORIENTED_EDGE('',*,*,#76,.F.);
#93=ORIENTED_EDGE('',*,*,#77,.T.);
#94=ORIENTED_EDGE('',*,*,#78,.F.);
#95=ORIENTED_EDGE('',*,*,#79,.F.);
#96=ORIENTED_EDGE('',*,*,#77,.F.);
#97=ORIENTED_EDGE('',*,*,#78,.T.);
#98=ORIENTED_EDGE('',*,*,#79,.T.);
#99=ORIENTED_EDGE('',*,*,#80,.F.);
#100=ORIENTED_EDGE('',*,*,#81,.F.);
#101=ORIENTED_EDGE('',*,*,#82,.F.);
#102=ORIENTED_EDGE('',*,*,#83,.T.);
#103=ORIENTED_EDGE('',*,*,#84,.F.);
#104=ORIENTED_EDGE('',*,*,#85,.F.);
#105=ORIENTED_EDGE('',*,*,#83,.F.);
#106=ORIENTED_EDGE('',*,*,#84,.T.);
#107=ORIENTED_EDGE('',*,*,#85,.T.);
#108=ORIENTED_EDGE('',*,*,#86,.F.);
#109=ORIENTED_EDGE('',*,*,#86,.T.);
#110=ORIENTED_EDGE('',*,*,#87,.T.);
#111=ORIENTED_EDGE('',*,*,#80,.T.);
#112=ORIENTED_EDGE('',*,*,#87,.F.);
#113=ORIENTED_EDGE('',*,*,#88,.T.);
#114=ORIENTED_EDGE('',*,*,#81,.T.);
#115=ORIENTED_EDGE('',*,*,#82,.T.);
#116=ORIENTED_EDGE('',*,*,#89,.F.);
#117=ORIENTED_EDGE('',*,*,#90,.T.);
#118=ORIENTED_EDGE('',*,*,#88,.F.);
#119=ORIENTED_EDGE('',*,*,#90,.F.);
#120=ORIENTED_EDGE('',*,*,#89,.T.);
#121=ORIENTED_EDGE('',*,*,#75,.T.);
#122=ORIENTED_EDGE('',*,*,#76,.T.);
#123=CYLINDRICAL_SURFACE('',#155,1.25);
#124=CYLINDRICAL_SURFACE('',#162,1.25);
#125=CYLINDRICAL_SURFACE('',#169,1.2);
#126=CYLINDRICAL_SURFACE('',#172,2.);
#127=ADVANCED_FACE('',(#23),#123,.F.);
#128=ADVANCED_FACE('',(#24,#15),#19,.T.);
#129=ADVANCED_FACE('',(#25),#124,.F.);
#130=ADVANCED_FACE('',(#26,#16),#20,.T.);
#131=ADVANCED_FACE('',(#27),#125,.F.);
#132=ADVANCED_FACE('',(#28,#17),#21,.F.);
#133=ADVANCED_FACE('',(#29),#126,.T.);
#134=ADVANCED_FACE('',(#30,#18),#22,.T.);
#135=CLOSED_SHELL('',(#127,#128,#129,#130,#131,#132,#133,#134));
#136=DERIVED_UNIT_ELEMENT(#138,1.);
#137=DERIVED_UNIT_ELEMENT(#263,3.);
#138=(
MASS_UNIT()
NAMED_UNIT(*)
SI_UNIT($,.GRAM.)
);
#139=DERIVED_UNIT((#136,#137));
#140=MEASURE_REPRESENTATION_ITEM('density measure',
POSITIVE_RATIO_MEASURE(7.85472),#139);
#141=PROPERTY_DEFINITION_REPRESENTATION(#146,#143);
#142=PROPERTY_DEFINITION_REPRESENTATION(#147,#144);
#143=REPRESENTATION('material name',(#145),#260);
#144=REPRESENTATION('density',(#140),#260);
#145=DESCRIPTIVE_REPRESENTATION_ITEM('\X2\30B930C630F330EC30B992FC\X0\ 
303','\X2\30B930C630F330EC30B992FC\X0\ 303');
#146=PROPERTY_DEFINITION('material property','material name',#270);
#147=PROPERTY_DEFINITION('material property','density of part',#270);
#148=DATE_TIME_ROLE('creation_date');
#149=APPLIED_DATE_AND_TIME_ASSIGNMENT(#150,#148,(#270));
#150=DATE_AND_TIME(#151,#152);
#151=CALENDAR_DATE(2016,25,11);
#152=LOCAL_TIME(8,19,49.,#153);
#153=COORDINATED_UNIVERSAL_TIME_OFFSET(0,0,.BEHIND.);
#154=AXIS2_PLACEMENT_3D('placement',#221,#175,#176);
#155=AXIS2_PLACEMENT_3D('',#222,#177,#178);
#156=AXIS2_PLACEMENT_3D('',#225,#179,#180);
#157=AXIS2_PLACEMENT_3D('',#226,#181,#182);
#158=AXIS2_PLACEMENT_3D('',#230,#184,#185);
#159=AXIS2_PLACEMENT_3D('',#231,#186,#187);
#160=AXIS2_PLACEMENT_3D('',#232,#188,#189);
#161=AXIS2_PLACEMENT_3D('',#234,#190,#191);
#162=AXIS2_PLACEMENT_3D('',#235,#192,#193);
#163=AXIS2_PLACEMENT_3D('',#238,#194,#195);
#164=AXIS2_PLACEMENT_3D('',#239,#196,#197);
#165=AXIS2_PLACEMENT_3D('',#243,#199,#200);
#166=AXIS2_PLACEMENT_3D('',#244,#201,#202);
#167=AXIS2_PLACEMENT_3D('',#245,#203,#204);
#168=AXIS2_PLACEMENT_3D('',#247,#205,#206);
#169=AXIS2_PLACEMENT_3D('',#248,#207,#208);
#170=AXIS2_PLACEMENT_3D('',#250,#210,#211);
#171=AXIS2_PLACEMENT_3D('',#252,#212,#213);
#172=AXIS2_PLACEMENT_3D('',#253,#214,#215);
#173=AXIS2_PLACEMENT_3D('',#255,#216,#217);
#174=AXIS2_PLACEMENT_3D('',#257,#219,#220);
#175=DIRECTION('axis',(0.,0.,1.));
#176=DIRECTION('refdir',(1.,0.,0.));
#177=DIRECTION('center_axis',(0.,1.,0.));
#178=DIRECTION('ref_axis',(1.,0.,0.));
#179=DIRECTION('center_axis',(0.,-1.,0.));
#180=DIRECTION('ref_axis',(1.,0.,0.));
#181=DIRECTION('center_axis',(0.,-1.,0.));
#182=DIRECTION('ref_axis',(1.,0.,0.));
#183=DIRECTION('',(0.,-1.,0.));
#184=DIRECTION('center_axis',(0.,1.,0.));
#185=DIRECTION('ref_axis',(1.,0.,0.));
#186=DIRECTION('center_axis',(0.,1.,0.));
#187=DIRECTION('ref_axis',(1.,0.,0.));
#188=DIRECTION('center_axis',(0.,1.,0.));
#189=DIRECTION('ref_axis',(1.,0.,0.));
#190=DIRECTION('center_axis',(0.,1.,0.));
#191=DIRECTION('ref_axis',(1.,0.,0.));
#192=DIRECTION('center_axis',(0.,-1.,0.));
#193=DIRECTION('ref_axis',(1.,0.,0.));
#194=DIRECTION('center_axis',(0.,1.,0.));
#195=DIRECTION('ref_axis',(1.,0.,0.));
#196=DIRECTION('center_axis',(0.,1.,0.));
#197=DIRECTION('ref_axis',(1.,0.,0.));
#198=DIRECTION('',(0.,1.,0.));
#199=DIRECTION('center_axis',(0.,-1.,0.));
#200=DIRECTION('ref_axis',(1.,0.,0.));
#201=DIRECTION('center_axis',(0.,-1.,0.));
#202=DIRECTION('ref_axis',(1.,0.,0.));
#203=DIRECTION('center_axis',(0.,-1.,0.));
#204=DIRECTION('ref_axis',(1.,0.,0.));
#205=DIRECTION('center_axis',(0.,-1.,0.));
#206=DIRECTION('ref_axis',(1.,0.,0.));
#207=DIRECTION('center_axis',(0.,-1.,0.));
#208=DIRECTION('ref_axis',(1.,0.,0.));
#209=DIRECTION('',(0.,1.,0.));
#210=DIRECTION('center_axis',(0.,1.,0.));
#211=DIRECTION('ref_axis',(0.,0.,1.));
#212=DIRECTION('center_axis',(0.,-1.,0.));
#213=DIRECTION('ref_axis',(1.,0.,0.));
#214=DIRECTION('center_axis',(0.,1.,0.));
#215=DIRECTION('ref_axis',(1.,0.,0.));
#216=DIRECTION('center_axis',(0.,1.,0.));
#217=DIRECTION('ref_axis',(1.,0.,0.));
#218=DIRECTION('',(0.,-1.,0.));
#219=DIRECTION('center_axis',(0.,1.,0.));
#220=DIRECTION('ref_axis',(0.,0.,1.));
#221=CARTESIAN_POINT('',(0.,0.,0.));
#222=CARTESIAN_POINT('Origin',(0.,1.5,0.));
#223=CARTESIAN_POINT('',(1.25,2.5,0.));
#224=CARTESIAN_POINT('',(-1.25,2.5,1.53080849893419E-16));
#225=CARTESIAN_POINT('Origin',(0.,2.5,0.));
#226=CARTESIAN_POINT('Origin',(0.,2.5,0.));
#227=CARTESIAN_POINT('',(-1.25,0.5,1.53080849893419E-16));
#228=CARTESIAN_POINT('',(-1.25,1.5,1.53080849893419E-16));
#229=CARTESIAN_POINT('',(1.25,0.5,0.));
#230=CARTESIAN_POINT('Origin',(0.,0.5,0.));
#231=CARTESIAN_POINT('Origin',(0.,0.5,0.));
#232=CARTESIAN_POINT('Origin',(0.,0.5,0.));
#233=CARTESIAN_POINT('',(-1.2,0.5,1.46957615897682E-16));
#234=CARTESIAN_POINT('Origin',(0.,0.5,0.));
#235=CARTESIAN_POINT('Origin',(0.,-1.5,0.));
#236=CARTESIAN_POINT('',(1.25,-2.5,0.));
#237=CARTESIAN_POINT('',(-1.25,-2.5,-1.53080849893419E-16));
#238=CARTESIAN_POINT('Origin',(0.,-2.5,0.));
#239=CARTESIAN_POINT('Origin',(0.,-2.5,0.));
#240=CARTESIAN_POINT('',(-1.25,-0.5,-1.53080849893419E-16));
#241=CARTESIAN_POINT('',(-1.25,-1.5,-1.53080849893419E-16));
#242=CARTESIAN_POINT('',(1.25,-0.5,0.));
#243=CARTESIAN_POINT('Origin',(0.,-0.5,0.));
#244=CARTESIAN_POINT('Origin',(0.,-0.5,0.));
#245=CARTESIAN_POINT('Origin',(0.,-0.5,0.));
#246=CARTESIAN_POINT('',(-1.2,-0.5,-1.46957615897682E-16));
#247=CARTESIAN_POINT('Origin',(0.,-0.5,0.));
#248=CARTESIAN_POINT('Origin',(0.,5.04983443527075,0.));
#249=CARTESIAN_POINT('',(-1.2,5.04983443527075,-1.46957615897682E-16));
#250=CARTESIAN_POINT('Origin',(1.9388312758347E-16,-2.5,-2.89120579329468E-17));
#251=CARTESIAN_POINT('',(-2.,-2.5,2.44929359829471E-16));
#252=CARTESIAN_POINT('Origin',(0.,-2.5,0.));
#253=CARTESIAN_POINT('Origin',(0.,0.,0.));
#254=CARTESIAN_POINT('',(-2.,2.5,2.44929359829471E-16));
#255=CARTESIAN_POINT('Origin',(0.,2.5,0.));
#256=CARTESIAN_POINT('',(-2.,0.,2.44929359829471E-16));
#257=CARTESIAN_POINT('Origin',(1.9388312758347E-16,2.5,-2.89120579329468E-17));
#258=UNCERTAINTY_MEASURE_WITH_UNIT(LENGTH_MEASURE(0.01),#262,
'DISTANCE_ACCURACY_VALUE',
'Maximum model space distance between geometric entities at asserted c
onnectivities');
#259=UNCERTAINTY_MEASURE_WITH_UNIT(LENGTH_MEASURE(0.01),#262,
'DISTANCE_ACCURACY_VALUE',
'Maximum model space distance between geometric entities at asserted c
onnectivities');
#260=(
GEOMETRIC_REPRESENTATION_CONTEXT(3)
GLOBAL_UNCERTAINTY_ASSIGNED_CONTEXT((#258))
GLOBAL_UNIT_ASSIGNED_CONTEXT((#262,#264,#265))
REPRESENTATION_CONTEXT('','3D')
);
#261=(
GEOMETRIC_REPRESENTATION_CONTEXT(3)
GLOBAL_UNCERTAINTY_ASSIGNED_CONTEXT((#259))
GLOBAL_UNIT_ASSIGNED_CONTEXT((#262,#264,#265))
REPRESENTATION_CONTEXT('','3D')
);
#262=(
LENGTH_UNIT()
NAMED_UNIT(*)
SI_UNIT(.MILLI.,.METRE.)
);
#263=(
LENGTH_UNIT()
NAMED_UNIT(*)
SI_UNIT(.CENTI.,.METRE.)
);
#264=(
NAMED_UNIT(*)
PLANE_ANGLE_UNIT()
SI_UNIT($,.RADIAN.)
);
#265=(
NAMED_UNIT(*)
SI_UNIT($,.STERADIAN.)
SOLID_ANGLE_UNIT()
);
#266=SHAPE_DEFINITION_REPRESENTATION(#267,#268);
#267=PRODUCT_DEFINITION_SHAPE('',$,#270);
#268=SHAPE_REPRESENTATION('',(#154),#260);
#269=PRODUCT_DEFINITION_CONTEXT('part definition',#274,'design');
#270=PRODUCT_DEFINITION('C16RO45-M03-19001  A','C16RO45-M03-19001',#271,
#269);
#271=PRODUCT_DEFINITION_FORMATION('',$,#276);
#272=PRODUCT_RELATED_PRODUCT_CATEGORY('C16RO45-M03-19001',
'C16RO45-M03-19001',(#276));
#273=APPLICATION_PROTOCOL_DEFINITION('international standard',
'automotive_design',2009,#274);
#274=APPLICATION_CONTEXT(
'Core Data for Automotive Mechanical Design Process');
#275=PRODUCT_CONTEXT('part definition',#274,'mechanical');
#276=PRODUCT('C16RO45-M03-19001  A','C16RO45-M03-19001',$,(#275));
#277=PRESENTATION_STYLE_ASSIGNMENT((#278));
#278=SURFACE_STYLE_USAGE(.BOTH.,#281);
#279=SURFACE_STYLE_RENDERING_WITH_PROPERTIES($,#285,(#280));
#280=SURFACE_STYLE_TRANSPARENT(0.);
#281=SURFACE_SIDE_STYLE('',(#282,#279));
#282=SURFACE_STYLE_FILL_AREA(#283);
#283=FILL_AREA_STYLE('',(#284));
#284=FILL_AREA_STYLE_COLOUR('',#285);
#285=COLOUR_RGB('',0.749019607843137,0.749019607843137,0.749019607843137);
ENDSEC;
END-ISO-10303-21;
